  0
SECTION
  2
HEADER
  9
$ACADVER
  1
AC1018
  9
$ACADMAINTVER
 70
     0
  9
$DWGCODEPAGE
  3
ANSI_1252
  9
$INSBASE
 10
0.0
 20
0.0
 30
0.0
  9
$EXTMIN
 10
1.000000000000000E+20
 20
1.000000000000000E+20
 30
1.000000000000000E+20
  9
$EXTMAX
 10
-1.000000000000000E+20
 20
-1.000000000000000E+20
 30
-1.000000000000000E+20
  9
$LIMMIN
 10
0.0
 20
0.0
  9
$LIMMAX
 10
12.0
 20
9.0
  9
$ORTHOMODE
 70
     0
  9
$REGENMODE
 70
     1
  9
$FILLMODE
 70
     1
  9
$QTEXTMODE
 70
     0
  9
$MIRRTEXT
 70
     1
  9
$LTSCALE
 40
1.0
  9
$ATTMODE
 70
     1
  9
$TEXTSIZE
 40
0.2
  9
$TRACEWID
 40
0.05
  9
$TEXTSTYLE
  7
Standard
  9
$CLAYER
  8
0
  9
$CELTYPE
  6
ByLayer
  9
$CECOLOR
 62
   256
  9
$CELTSCALE
 40
1.0
  9
$DISPSILH
 70
     0
  9
$DIMSCALE
 40
1.0
  9
$DIMASZ
 40
0.18
  9
$DIMEXO
 40
0.0625
  9
$DIMDLI
 40
0.38
  9
$DIMRND
 40
0.0
  9
$DIMDLE
 40
0.0
  9
$DIMEXE
 40
0.18
  9
$DIMTP
 40
0.0
  9
$DIMTM
 40
0.0
  9
$DIMTXT
 40
0.18
  9
$DIMCEN
 40
0.09
  9
$DIMTSZ
 40
0.0
  9
$DIMTOL
 70
     0
  9
$DIMLIM
 70
     0
  9
$DIMTIH
 70
     1
  9
$DIMTOH
 70
     1
  9
$DIMSE1
 70
     0
  9
$DIMSE2
 70
     0
  9
$DIMTAD
 70
     0
  9
$DIMZIN
 70
     0
  9
$DIMBLK
  1

  9
$DIMASO
 70
     1
  9
$DIMSHO
 70
     1
  9
$DIMPOST
  1

  9
$DIMAPOST
  1

  9
$DIMALT
 70
     0
  9
$DIMALTD
 70
     2
  9
$DIMALTF
 40
25.4
  9
$DIMLFAC
 40
1.0
  9
$DIMTOFL
 70
     0
  9
$DIMTVP
 40
0.0
  9
$DIMTIX
 70
     0
  9
$DIMSOXD
 70
     0
  9
$DIMSAH
 70
     0
  9
$DIMBLK1
  1

  9
$DIMBLK2
  1

  9
$DIMSTYLE
  2
Standard
  9
$DIMCLRD
 70
     0
  9
$DIMCLRE
 70
     0
  9
$DIMCLRT
 70
     0
  9
$DIMTFAC
 40
1.0
  9
$DIMGAP
 40
0.09
  9
$DIMJUST
 70
     0
  9
$DIMSD1
 70
     0
  9
$DIMSD2
 70
     0
  9
$DIMTOLJ
 70
     1
  9
$DIMTZIN
 70
     0
  9
$DIMALTZ
 70
     0
  9
$DIMALTTZ
 70
     0
  9
$DIMUPT
 70
     0
  9
$DIMDEC
 70
     4
  9
$DIMTDEC
 70
     4
  9
$DIMALTU
 70
     2
  9
$DIMALTTD
 70
     2
  9
$DIMTXSTY
  7
Standard
  9
$DIMAUNIT
 70
     0
  9
$DIMADEC
 70
     0
  9
$DIMALTRND
 40
0.0
  9
$DIMAZIN
 70
     0
  9
$DIMDSEP
 70
    46
  9
$DIMATFIT
 70
     3
  9
$DIMFRAC
 70
     0
  9
$DIMLDRBLK
  1

  9
$DIMLUNIT
 70
     2
  9
$DIMLWD
 70
    -2
  9
$DIMLWE
 70
    -2
  9
$DIMTMOVE
 70
     0
  9
$LUNITS
 70
     2
  9
$LUPREC
 70
     4
  9
$SKETCHINC
 40
0.1
  9
$FILLETRAD
 40
0.5
  9
$AUNITS
 70
     0
  9
$AUPREC
 70
     0
  9
$MENU
  1
.
  9
$ELEVATION
 40
0.0
  9
$PELEVATION
 40
0.0
  9
$THICKNESS
 40
0.0
  9
$LIMCHECK
 70
     0
  9
$CHAMFERA
 40
0.5
  9
$CHAMFERB
 40
0.5
  9
$CHAMFERC
 40
1.0
  9
$CHAMFERD
 40
0.0
  9
$SKPOLY
 70
     0
  9
$TDCREATE
 40
2455680.418687581
  9
$TDUCREATE
 40
2455679.918687581
  9
$TDUPDATE
 40
2455680.418687593
  9
$TDUUPDATE
 40
2455679.918687593
  9
$TDINDWG
 40
0.0000000116
  9
$TDUSRTIMER
 40
0.0000000116
  9
$USRTIMER
 70
     1
  9
$ANGBASE
 50
0.0
  9
$ANGDIR
 70
     0
  9
$PDMODE
 70
     0
  9
$PDSIZE
 40
0.0
  9
$PLINEWID
 40
0.0
  9
$SPLFRAME
 70
     0
  9
$SPLINETYPE
 70
     6
  9
$SPLINESEGS
 70
     8
  9
$HANDSEED
  5
32D
  9
$SURFTAB1
 70
     6
  9
$SURFTAB2
 70
     6
  9
$SURFTYPE
 70
     6
  9
$SURFU
 70
     6
  9
$SURFV
 70
     6
  9
$UCSBASE
  2

  9
$UCSNAME
  2

  9
$UCSORG
 10
0.0
 20
0.0
 30
0.0
  9
$UCSXDIR
 10
1.0
 20
0.0
 30
0.0
  9
$UCSYDIR
 10
0.0
 20
1.0
 30
0.0
  9
$UCSORTHOREF
  2

  9
$UCSORTHOVIEW
 70
     0
  9
$UCSORGTOP
 10
0.0
 20
0.0
 30
0.0
  9
$UCSORGBOTTOM
 10
0.0
 20
0.0
 30
0.0
  9
$UCSORGLEFT
 10
0.0
 20
0.0
 30
0.0
  9
$UCSORGRIGHT
 10
0.0
 20
0.0
 30
0.0
  9
$UCSORGFRONT
 10
0.0
 20
0.0
 30
0.0
  9
$UCSORGBACK
 10
0.0
 20
0.0
 30
0.0
  9
$PUCSBASE
  2

  9
$PUCSNAME
  2

  9
$PUCSORG
 10
0.0
 20
0.0
 30
0.0
  9
$PUCSXDIR
 10
1.0
 20
0.0
 30
0.0
  9
$PUCSYDIR
 10
0.0
 20
1.0
 30
0.0
  9
$PUCSORTHOREF
  2

  9
$PUCSORTHOVIEW
 70
     0
  9
$PUCSORGTOP
 10
0.0
 20
0.0
 30
0.0
  9
$PUCSORGBOTTOM
 10
0.0
 20
0.0
 30
0.0
  9
$PUCSORGLEFT
 10
0.0
 20
0.0
 30
0.0
  9
$PUCSORGRIGHT
 10
0.0
 20
0.0
 30
0.0
  9
$PUCSORGFRONT
 10
0.0
 20
0.0
 30
0.0
  9
$PUCSORGBACK
 10
0.0
 20
0.0
 30
0.0
  9
$USERI1
 70
     0
  9
$USERI2
 70
     0
  9
$USERI3
 70
     0
  9
$USERI4
 70
     0
  9
$USERI5
 70
     0
  9
$USERR1
 40
0.0
  9
$USERR2
 40
0.0
  9
$USERR3
 40
0.0
  9
$USERR4
 40
0.0
  9
$USERR5
 40
0.0
  9
$WORLDVIEW
 70
     1
  9
$SHADEDGE
 70
     3
  9
$SHADEDIF
 70
    70
  9
$TILEMODE
 70
     1
  9
$MAXACTVP
 70
    64
  9
$PINSBASE
 10
0.0
 20
0.0
 30
0.0
  9
$PLIMCHECK
 70
     0
  9
$PEXTMIN
 10
1.000000000000000E+20
 20
1.000000000000000E+20
 30
1.000000000000000E+20
  9
$PEXTMAX
 10
-1.000000000000000E+20
 20
-1.000000000000000E+20
 30
-1.000000000000000E+20
  9
$PLIMMIN
 10
0.0
 20
0.0
  9
$PLIMMAX
 10
12.0
 20
9.0
  9
$UNITMODE
 70
     0
  9
$VISRETAIN
 70
     1
  9
$PLINEGEN
 70
     0
  9
$PSLTSCALE
 70
     1
  9
$TREEDEPTH
 70
  3020
  9
$CMLSTYLE
  2
Standard
  9
$CMLJUST
 70
     0
  9
$CMLSCALE
 40
1.0
  9
$PROXYGRAPHICS
 70
     1
  9
$MEASUREMENT
 70
     0
  9
$CELWEIGHT
370
    -1
  9
$ENDCAPS
280
     0
  9
$JOINSTYLE
280
     0
  9
$LWDISPLAY
290
     1
  9
$INSUNITS
 70
     0
  9
$HYPERLINKBASE
  1

  9
$STYLESHEET
  1

  9
$XEDIT
290
     1
  9
$CEPSNTYPE
380
     0
  9
$PSTYLEMODE
290
     1
  9
$FINGERPRINTGUID
  2
{116963FA-1AE9-4A80-BCF5-CD026BB0974A}
  9
$VERSIONGUID
  2
{FAEB1C32-E019-11D5-929B-00C0DF256EC4}
  9
$EXTNAMES
290
     1
  9
$PSVPSCALE
 40
0.0
  9
$OLESTARTUP
290
     0
  9
$SORTENTS
280
   127
  9
$INDEXCTL
280
     0
  9
$HIDETEXT
280
     1
  9
$XCLIPFRAME
290
     0
  9
$HALOGAP
280
     0
  9
$OBSCOLOR
 70
   257
  9
$OBSLTYPE
280
     0
  9
$INTERSECTIONDISPLAY
280
     0
  9
$INTERSECTIONCOLOR
 70
   257
  9
$DIMASSOC
280
     2
  9
$PROJECTNAME
  1

  0
ENDSEC
  0
SECTION
  2
CLASSES
  0
CLASS
  1
ACDBDICTIONARYWDFLT
  2
AcDbDictionaryWithDefault
  3
ObjectDBX Classes
 90
        0
 91
        4
280
     0
281
     0
  0
CLASS
  1
VISUALSTYLE
  2
AcDbVisualStyle
  3
ObjectDBX Classes
 90
     4095
 91
        4
280
     0
281
     0
  0
CLASS
  1
SCALE
  2
AcDbScale
  3
ObjectDBX Classes
 90
     1153
 91
        4
280
     0
281
     0
  0
CLASS
  1
DICTIONARYVAR
  2
AcDbDictionaryVar
  3
ObjectDBX Classes
 90
        0
 91
        4
280
     0
281
     0
  0
ENDSEC
  0
SECTION
  2
TABLES
  0
TABLE
  2
VPORT
  5
8
330
0
100
AcDbSymbolTable
 70
     1
  0
VPORT
  5
29
330
8
100
AcDbSymbolTableRecord
100
AcDbViewportTableRecord
  2
*Active
 70
     0
 10
0.0
 20
0.0
 11
1.0
 21
1.0
 12
11894.97369803498
 22
2402.040499765485
 13
0.0
 23
0.0
 14
0.5
 24
0.5
 15
0.5
 25
0.5
 16
0.0
 26
0.0
 36
1.0
 17
0.0
 27
0.0
 37
0.0
 40
4992.999308006879
 41
1.210222307072515
 42
50.0
 43
0.0
 44
0.0
 50
0.0
 51
0.0
 71
     0
 72
   100
 73
     1
 74
     3
 75
     0
 76
     0
 77
     0
 78
     0
281
     0
 65
     1
110
0.0
120
0.0
130
0.0
111
1.0
121
0.0
131
0.0
112
0.0
122
1.0
132
0.0
 79
     0
146
0.0
  0
ENDTAB
  0
TABLE
  2
LTYPE
  5
5
330
0
100
AcDbSymbolTable
 70
     2
  0
LTYPE
  5
14
330
5
100
AcDbSymbolTableRecord
100
AcDbLinetypeTableRecord
  2
ByBlock
 70
     0
  3

 72
    65
 73
     0
 40
0.0
  0
LTYPE
  5
15
330
5
100
AcDbSymbolTableRecord
100
AcDbLinetypeTableRecord
  2
ByLayer
 70
     0
  3

 72
    65
 73
     0
 40
0.0
  0
LTYPE
  5
16
330
5
100
AcDbSymbolTableRecord
100
AcDbLinetypeTableRecord
  2
Continuous
 70
     0
  3
Solid line
 72
    65
 73
     0
 40
0.0
  0
LTYPE
  5
251
330
5
100
AcDbSymbolTableRecord
100
AcDbLinetypeTableRecord
  2
Dash Short
 70
     0
  3
- - - - - 
 72
    65
 73
     2
 40
1.5
 49
0.75
 74
     0
 49
-0.75
 74
     0
  0
ENDTAB
  0
TABLE
  2
LAYER
  5
2
330
0
100
AcDbSymbolTable
 70
     2
  0
LAYER
  5
10
330
2
100
AcDbSymbolTableRecord
100
AcDbLayerTableRecord
  2
0
 70
     0
 62
     7
  6
Continuous
370
    -3
390
F
  0
LAYER
  5
3C
330
2
100
AcDbSymbolTableRecord
100
AcDbLayerTableRecord
  2
hatch
 70
     0
 62
     7
  6
Continuous
370
    -3
390
F
  0
ENDTAB
  0
TABLE
  2
STYLE
  5
3
330
0
100
AcDbSymbolTable
 70
     2
  0
STYLE
  5
11
330
3
100
AcDbSymbolTableRecord
100
AcDbTextStyleTableRecord
  2
Standard
 70
     0
 40
0.0
 41
1.0
 50
0.0
 71
     0
 42
0.2
  3
txt
  4
BIGFONT.SHX
  0
STYLE
  5
2EE
330
3
100
AcDbSymbolTableRecord
100
AcDbTextStyleTableRecord
  2
GENERATED_STYLE_1
 70
     0
 40
0.0
 41
1.0
 50
0.0
 71
     0
 42
0.2
  3

  4

1001
ACAD
1000
Arial
1071
       34
  0
ENDTAB
  0
TABLE
  2
VIEW
  5
6
330
0
100
AcDbSymbolTable
 70
     0
  0
ENDTAB
  0
TABLE
  2
UCS
  5
7
330
0
100
AcDbSymbolTable
 70
     0
  0
ENDTAB
  0
TABLE
  2
APPID
  5
9
330
0
100
AcDbSymbolTable
 70
     1
  0
APPID
  5
12
330
9
100
AcDbSymbolTableRecord
100
AcDbRegAppTableRecord
  2
ACAD
 70
     0
  0
ENDTAB
  0
TABLE
  2
DIMSTYLE
  5
A
330
0
100
AcDbSymbolTable
 70
     2
100
AcDbDimStyleTable
  0
DIMSTYLE
105
27
330
A
100
AcDbSymbolTableRecord
100
AcDbDimStyleTableRecord
  2
Standard
 70
     0
340
11
  0
DIMSTYLE
105
313
330
A
100
AcDbSymbolTableRecord
100
AcDbDimStyleTableRecord
  2
GENERATED_STYLE__1
 70
     0
 41
98.496
172
     1
340
0
341
314
  0
ENDTAB
  0
TABLE
  2
BLOCK_RECORD
  5
1
330
0
100
AcDbSymbolTable
 70
     3
  0
BLOCK_RECORD
  5
1F
330
1
100
AcDbSymbolTableRecord
100
AcDbBlockTableRecord
  2
*Model_Space
340
22
  0
BLOCK_RECORD
  5
1B
330
1
100
AcDbSymbolTableRecord
100
AcDbBlockTableRecord
  2
*Paper_Space
340
1E
  0
BLOCK_RECORD
  5
23
330
1
100
AcDbSymbolTableRecord
100
AcDbBlockTableRecord
  2
*Paper_Space0
340
26
  0
BLOCK_RECORD
  5
314
330
1
100
AcDbSymbolTableRecord
100
AcDbBlockTableRecord
  2
ARROWHEAD_5
340
0
  0
BLOCK_RECORD
  5
324
330
1
100
AcDbSymbolTableRecord
100
AcDbBlockTableRecord
  2
Untitled _STORY_MARKER
340
0
  0
ENDTAB
  0
ENDSEC
  0
SECTION
  2
BLOCKS
  0
BLOCK
  5
20
330
1F
100
AcDbEntity
  8
0
100
AcDbBlockBegin
  2
*Model_Space
 70
     0
 10
0.0
 20
0.0
 30
0.0
  3
*Model_Space
  1

  0
ENDBLK
  5
21
330
1F
100
AcDbEntity
  8
0
100
AcDbBlockEnd
  0
BLOCK
  5
1C
330
1B
100
AcDbEntity
 67
     1
  8
0
100
AcDbBlockBegin
  2
*Paper_Space
 70
     0
 10
0.0
 20
0.0
 30
0.0
  3
*Paper_Space
  1

  0
ENDBLK
  5
1D
330
1B
100
AcDbEntity
 67
     1
  8
0
100
AcDbBlockEnd
  0
BLOCK
  5
24
330
23
100
AcDbEntity
  8
0
100
AcDbBlockBegin
  2
*Paper_Space0
 70
     0
 10
0.0
 20
0.0
 30
0.0
  3
*Paper_Space0
  1

  0
ENDBLK
  5
25
330
23
100
AcDbEntity
  8
0
100
AcDbBlockEnd
  0
BLOCK
  5
315
330
314
100
AcDbEntity
  8
0
100
AcDbBlockBegin
  2
ARROWHEAD_5
 70
     0
 10
0.0
 20
0.0
 30
0.0
  3
ARROWHEAD_5
  1

  0
SOLID
  5
317
330
314
100
AcDbEntity
  8
0
  6
Continuous
 62
     0
370
     0
100
AcDbTrace
 10
-1.0
 20
0.2679
 30
0.0
 11
0.0
 21
0.0
 31
0.0
 12
-1.0
 22
-0.2679
 32
0.0
 13
-1.0
 23
0.2679
 33
0.0
  0
LINE
  5
318
330
314
100
AcDbEntity
  8
0
  6
Continuous
 62
     0
370
     0
100
AcDbLine
 10
0.0
 20
0.0
 30
0.0
 11
-1.0
 21
0.0
 31
0.0
  0
ENDBLK
  5
316
330
314
100
AcDbEntity
  8
0
100
AcDbBlockEnd
  0
BLOCK
  5
325
330
324
100
AcDbEntity
  8
0
100
AcDbBlockBegin
  2
Untitled _STORY_MARKER
 70
     0
 10
0.0
 20
0.0
 30
0.0
  3
Untitled _STORY_MARKER
  1

  0
ENDBLK
  5
326
330
324
100
AcDbEntity
  8
0
100
AcDbBlockEnd
  0
ENDSEC
  0
SECTION
  2
ENTITIES
  0
HATCH
  5
3B
330
1F
100
AcDbEntity
  8
hatch
  6
Continuous
 62
   254
420
 15263976
370
    13
100
AcDbHatch
 10
0.0
 20
0.0
 30
0.0
210
0.0
220
0.0
230
1.0
  2
SOLID
 70
     1
 71
     0
 91
        1
 92
        2
 72
     0
 73
     1
 93
        4
 10
11913.00356484705
 20
273.4294558835475
 10
11913.00356484705
 20
2519.449455988133
 10
11830.54079540805
 20
2541.205578179986
 10
11830.54079540805
 20
295.1855780753956
 97
        0
 75
     0
 76
     1
 98
        0
  0
HATCH
  5
3D
330
1F
100
AcDbEntity
  8
hatch
  6
Continuous
 62
   254
420
 15263976
370
    13
100
AcDbHatch
 10
0.0
 20
0.0
 30
0.0
210
0.0
220
0.0
230
1.0
  2
SOLID
 70
     1
 71
     0
 91
        3
 92
        2
 72
     0
 73
     1
 93
        5
 10
11333.27787666102
 20
426.378272751943
 10
11787.31736565295
 20
306.5891996818513
 10
11787.31736565295
 20
2544.122701421593
 10
11797.38994881562
 20
2549.951770022954
 10
11333.27787666102
 20
2672.398274814259
 97
        0
 92
        2
 72
     0
 73
     1
 93
        6
 10
11612.80228289249
 20
2521.12744389379
 10
11488.95960498214
 20
2565.834843278908
 10
11491.84889789424
 20
2601.752457891823
 10
11501.92148105691
 20
2607.581526493184
 10
11625.76415896726
 20
2562.874127108065
 10
11622.87486605516
 20
2526.956512495151
 97
        0
 92
        2
 72
     0
 73
     1
 93
        6
 10
11612.80228289249
 20
357.9524641575999
 10
11488.95960498214
 20
402.6598635427185
 10
11491.84889789424
 20
438.5774429022966
 10
11501.92148105691
 20
444.406511503657
 10
11625.76415896726
 20
399.6991121185389
 10
11622.87486605516
 20
363.7814975056246
 97
        0
 75
     0
 76
     1
 98
        0
  0
HATCH
  5
3E
330
1F
100
AcDbEntity
  8
hatch
  6
Continuous
 62
   254
420
 15263976
370
    13
100
AcDbHatch
 10
0.0
 20
0.0
 30
0.0
210
0.0
220
0.0
230
1.0
  2
SOLID
 70
     1
 71
     0
 91
        3
 92
        2
 72
     0
 73
     1
 93
        5
 10
10836.01494537055
 20
557.5709693862154
 10
11290.05443436248
 20
437.7818963161242
 10
11290.05443436248
 20
2675.315398055862
 10
11300.12701752514
 20
2681.144466657223
 10
10836.01494537055
 20
2803.590971448528
 97
        0
 92
        2
 72
     0
 73
     1
 93
        6
 10
11115.53935160202
 20
2652.320140528059
 10
10991.69667369167
 20
2697.027539913178
 10
10994.58596660377
 20
2732.945154526092
 10
11004.65854976644
 20
2738.774223127453
 10
11128.50122767679
 20
2694.066823742334
 10
11125.61193476469
 20
2658.14920912942
 97
        0
 92
        2
 72
     0
 73
     1
 93
        6
 10
11115.53935160202
 20
489.1451607918724
 10
10991.69667369167
 20
533.852560176991
 10
10994.58596660377
 20
569.7701395365686
 10
11004.65854976644
 20
575.5992081379295
 10
11128.50122767679
 20
530.8918087528114
 10
11125.61193476469
 20
494.9741941398971
 97
        0
 75
     0
 76
     1
 98
        0
  0
HATCH
  5
3F
330
1F
100
AcDbEntity
  8
hatch
  6
Continuous
 62
   254
420
 15263976
370
    13
100
AcDbHatch
 10
0.0
 20
0.0
 30
0.0
210
0.0
220
0.0
230
1.0
  2
SOLID
 70
     1
 71
     0
 91
        3
 92
        2
 72
     0
 73
     1
 93
        5
 10
10322.17658303706
 20
693.1367450220498
 10
10792.79150101747
 20
568.9745929503931
 10
10792.79150101747
 20
2806.508100082694
 10
10802.8640900399
 20
2812.337135989748
 10
10322.17658303706
 20
2939.156757970606
 97
        0
 92
        2
 72
     0
 73
     1
 93
        6
 10
10618.2764342877
 20
2783.512860347135
 10
10494.43377336869
 20
2828.220254025138
 10
10497.32303859459
 20
2864.137861925823
 10
10507.39562761702
 20
2869.966897832876
 10
10631.23828853603
 20
2825.259504154873
 10
10628.34898799163
 20
2789.341896254189
 97
        0
 92
        2
 72
     0
 73
     1
 93
        6
 10
10618.2764342877
 20
620.3378639432123
 10
10494.43377336869
 20
665.0452576212151
 10
10497.32303859459
 20
700.9628655218995
 10
10507.39562761702
 20
706.7919014289532
 10
10631.23828853603
 20
662.0845077509503
 10
10628.34898799163
 20
626.1668998502658
 97
        0
 75
     0
 76
     1
 98
        0
  0
HATCH
  5
40
330
1F
100
AcDbEntity
  8
hatch
  6
Continuous
 62
   254
420
 15263976
370
    13
100
AcDbHatch
 10
0.0
 20
0.0
 30
0.0
210
0.0
220
0.0
230
1.0
  2
SOLID
 70
     1
 71
     0
 91
        1
 92
        2
 72
     0
 73
     1
 93
        4
 10
11913.00356484705
 20
2519.449455988133
 10
11913.00356484705
 20
273.4294558835475
 10
11968.68248057328
 20
305.6511697009223
 10
11968.68248057329
 20
2551.671169805518
 97
        0
 75
     0
 76
     1
 98
        0
  0
HATCH
  5
41
330
1F
100
AcDbEntity
  8
hatch
  6
Continuous
 62
   254
420
 15263976
370
    13
100
AcDbHatch
 10
0.0
 20
0.0
 30
0.0
210
0.0
220
0.0
230
1.0
  2
SOLID
 70
     1
 71
     0
 91
        2
 92
        2
 72
     0
 73
     1
 93
       14
 10
12304.4347389291
 20
2745.972971016666
 10
11991.06596090765
 20
2564.624627935776
 10
12005.98385222105
 20
2560.688841697399
 10
12005.98385222105
 20
327.2377007425631
 10
12214.61386170361
 20
448.3339861417177
 10
12210.24214749314
 20
479.1602028878319
 10
12208.51476263007
 20
445.6821600586156
 10
12124.89610063589
 20
409.3255869756061
 10
12109.9782093225
 20
413.261373213982
 10
12111.92905457639
 20
451.0702225853536
 10
12195.54771657057
 20
487.4267956683627
 10
12209.6731164205
 20
483.7001251053994
 10
12209.6731164205
 20
530.4833239822366
 10
12304.4347389291
 20
585.3224141162576
 97
        0
 92
        2
 72
     0
 73
     1
 93
        6
 10
12109.9782093225
 20
2576.436383774724
 10
12111.92905457639
 20
2614.245233146095
 10
12195.54771657057
 20
2650.601806229105
 10
12210.46560788396
 20
2646.666019990728
 10
12208.51476263007
 20
2608.857170619357
 10
12124.89610063589
 20
2572.500597536347
 97
        0
 75
     0
 76
     1
 98
        0
  0
HATCH
  5
42
330
1F
100
AcDbEntity
  8
hatch
  6
Continuous
 62
   254
420
 15263976
370
    13
100
AcDbHatch
 10
0.0
 20
0.0
 30
0.0
210
0.0
220
0.0
230
1.0
  2
SOLID
 70
     1
 71
     0
 91
        2
 92
        2
 72
     0
 73
     1
 93
       37
 10
12640.18699184454
 20
2940.274753532794
 10
12326.81821390435
 20
2758.926427407504
 10
12341.73609770698
 20
2754.990649292713
 10
12341.73609770698
 20
606.9089127278709
 10
12376.94106706377
 20
627.2822276183492
 10
12369.75044443196
 20
677.9857032322849
 10
12369.75044443196
 20
725.2964717007737
 10
12566.24112879346
 20
839.006784576219
 10
12559.05047139176
 20
889.7102254202616
 10
12559.05047139176
 20
937.0210286586436
 10
12634.45371453632
 20
980.6573147633255
 10
12627.26309190451
 20
1031.360755607368
 10
12627.26309190451
 20
1078.67155884575
 10
12640.18699184454
 20
1086.150667285398
 10
12640.18699184454
 20
1747.395777995201
 10
12639.31245947878
 20
1753.562322948535
 10
12639.31245947878
 20
1758.475413234805
 10
12633.18141458689
 20
1758.978637905995
 10
12621.02975398543
 20
1844.663964468994
 10
12613.75996030571
 20
1840.45687687384
 10
12599.44682926381
 20
1841.631751581192
 10
12587.23046189022
 20
1927.773154839555
 10
12587.23046189022
 20
1975.083923308043
 10
12594.22373060552
 20
1979.130999852496
 10
12587.03310797371
 20
2029.834440696538
 10
12587.03310797371
 20
2077.145209165027
 10
12605.58291579029
 20
2087.880100908821
 10
12598.39225838858
 20
2138.583541752864
 10
12598.39225838858
 20
2185.894344991246
 10
12631.23885539703
 20
2204.902837245213
 10
12624.04819799533
 20
2255.606312859149
 10
12624.04819799533
 20
2302.917081327638
 10
12640.18699184454
 20
2312.256692008059
 10
12640.18699184454
 20
2335.04147287452
 10
12635.98254676131
 20
2364.688266107646
 10
12635.98254676131
 20
2411.999069346029
 10
12640.18699184454
 20
2414.432196965772
 97
        0
 92
        2
 72
     0
 73
     1
 93
        6
 10
12445.73048534274
 20
2770.738177528375
 10
12447.68131976728
 20
2808.547029452758
 10
12531.29995862
 20
2844.903577688136
 10
12546.21787719252
 20
2840.967799573345
 10
12544.26700799808
 20
2803.158947648963
 10
12460.64836914537
 20
2766.80236464369
 97
        0
 75
     0
 76
     1
 98
        0
  0
HATCH
  5
43
330
1F
100
AcDbEntity
  8
hatch
  6
Continuous
 62
   254
420
 15263976
370
    13
100
AcDbHatch
 10
0.0
 20
0.0
 30
0.0
210
0.0
220
0.0
230
1.0
  2
SOLID
 70
     1
 71
     0
 91
        3
 92
        2
 72
     0
 73
     1
 93
       46
 10
12998.32273434612
 20
3147.529999880159
 10
13013.24061533772
 20
3143.594224433878
 10
13013.24061533772
 20
2936.846995734537
 10
13049.50051798872
 20
2957.830804415758
 10
13057.02513145855
 20
2957.213182298101
 10
13076.03000879508
 20
2823.203776760763
 10
13062.6387880556
 20
2815.45418741411
 10
13076.03000879508
 20
2721.028261541288
 10
13062.6387880556
 20
2713.278672194636
 10
13076.03000879508
 20
2618.852782003953
 10
13062.6387880556
 20
2611.1031926573
 10
13076.03000879508
 20
2516.677266784478
 10
13062.6387880556
 20
2508.927677437826
 10
13076.03000879508
 20
2414.501751565004
 10
13062.6387880556
 20
2406.752162218352
 10
13076.03000879508
 20
2312.326272027668
 10
13062.6387880556
 20
2304.576682681016
 10
13076.03000879508
 20
2210.150756808194
 10
13062.6387880556
 20
2202.401167461542
 10
13076.03000879508
 20
2107.975277270858
 10
13062.6387880556
 20
2100.225687924205
 10
13076.03000879508
 20
2005.799762051385
 10
13062.6387880556
 20
1998.050172704731
 10
13076.03000879508
 20
1903.624282514048
 10
13062.6387880556
 20
1895.874693167395
 10
13076.03000879508
 20
1801.448767294574
 10
13062.6387880556
 20
1793.699177947921
 10
13076.03000879508
 20
1699.273252075101
 10
13062.6387880556
 20
1691.523662728447
 10
13076.03000879508
 20
1597.097772537764
 10
13062.6387880556
 20
1589.348183191111
 10
13076.03000879508
 20
1494.92225731829
 10
13062.6387880556
 20
1487.172667971637
 10
13076.03000879508
 20
1392.746777780954
 10
13062.6387880556
 20
1384.997188434301
 10
13076.03000879508
 20
1290.57126256148
 10
13062.6387880556
 20
1282.821673214827
 10
13076.03000879508
 20
1188.395783024144
 10
13062.6387880556
 20
1180.646193677491
 10
13076.03000879508
 20
1086.22026780467
 10
13062.6387880556
 20
1078.470678458017
 10
13076.03000879508
 20
984.0447525851963
 10
13062.6387880556
 20
976.2951632385431
 10
13067.5621023388
 20
941.5792266763452
 10
13324.28220026229
 20
1090.144660649094
 10
13324.28220026229
 20
3336.164654454954
 97
        0
 92
        2
 72
     0
 73
     1
 93
        6
 10
13132.15287282475
 20
992.2309485660654
 10
13117.23499183315
 20
996.1667596944843
 10
13119.18584133564
 20
1033.975588251389
 10
13202.80450413679
 20
1070.332189494959
 10
13217.70358064195
 20
1066.032099424998
 10
13215.77153562591
 20
1028.587549809635
 97
        0
 92
        2
 72
     0
 73
     1
 93
        6
 10
13117.23499183315
 20
3159.341750804051
 10
13119.18584133564
 20
3197.150615043094
 10
13202.80450413679
 20
3233.507180604526
 10
13217.7223851284
 20
3229.571405158244
 10
13215.77153562591
 20
3191.762540919201
 10
13132.15287282475
 20
3155.40597535777
 97
        0
 75
     0
 76
     1
 98
        0
  0
HATCH
  5
44
330
1F
100
AcDbEntity
  8
hatch
  6
Continuous
 62
   254
420
 15263976
370
    13
100
AcDbHatch
 10
0.0
 20
0.0
 30
0.0
210
0.0
220
0.0
230
1.0
  2
SOLID
 70
     1
 71
     0
 91
        1
 92
        2
 72
     0
 73
     1
 93
       16
 10
12677.48836507043
 20
1107.737205636892
 10
12691.2397869091
 20
1115.695233109823
 10
12684.04914878733
 20
1166.398691875171
 10
12684.04914878733
 20
1213.709469726346
 10
12717.39383392627
 20
1233.006232584006
 10
12710.2031958045
 20
1283.709691349355
 10
12710.2031958045
 20
1331.02046920053
 10
12741.33593199236
 20
1349.037167739133
 10
12734.145300897
 20
1399.740626504481
 10
12734.145300897
 20
1404.70167236004
 10
12728.08683521988
 20
1405.198959490373
 10
12715.72256721272
 20
1491.827201089553
 10
12703.0225984224
 20
1492.869639254079
 10
12690.87092147149
 20
1578.554950704951
 10
12690.29240201695
 20
1578.220156328681
 10
12677.48836507043
 20
1579.271138607578
 97
        0
 75
     0
 76
     1
 98
        0
  0
HATCH
  5
45
330
1F
100
AcDbEntity
  8
hatch
  6
Continuous
 62
   254
420
 15263976
370
    13
100
AcDbHatch
 10
0.0
 20
0.0
 30
0.0
210
0.0
220
0.0
230
1.0
  2
SOLID
 70
     1
 71
     0
 91
        2
 92
        2
 72
     0
 73
     1
 93
       14
 10
12662.57047503407
 20
2953.228204379042
 10
12677.48836067727
 20
2949.292425194533
 10
12677.48836067727
 20
2436.018701352187
 10
12694.5042161415
 20
2445.865867833817
 10
12687.31357387578
 20
2496.569332908323
 10
12687.31357387578
 20
2543.880115333829
 10
12743.22854433953
 20
2576.238432312192
 10
12736.03791248316
 20
2626.941886977365
 10
12736.03791248316
 20
2674.252669402872
 10
12796.48315995286
 20
2709.232680969217
 10
12789.29252809648
 20
2759.936146043723
 10
12789.29252809648
 20
2807.246918059896
 10
12975.93924748017
 20
2915.260474851424
 10
12975.93924748017
 20
3134.576542080981
 97
        0
 92
        2
 72
     0
 73
     1
 93
        6
 10
12796.40062435217
 20
2961.104165895884
 10
12781.48272829964
 20
2965.039945080393
 10
12783.43358301858
 20
3002.848807369062
 10
12867.05223315441
 20
3039.205380348092
 10
12881.97011879761
 20
3035.269601163582
 10
12880.019274488
 20
2997.460738874913
 97
        0
 75
     0
 76
     1
 98
        0
  0
LINE
  5
46
330
1F
100
AcDbEntity
  8
0
  6
Continuous
100
AcDbLine
 10
13419.29521486635
 20
887.6746198084726
 30
0.0
 11
11911.11927363108
 21
14.88439157047239
 31
0.0
  0
LINE
  5
47
330
1F
100
AcDbEntity
  8
0
  6
Continuous
100
AcDbLine
 10
11911.11927363108
 20
14.88439157047239
 30
0.0
 11
8973.124121256551
 21
790.0145741846276
 31
0.0
  0
LINE
  5
48
330
1F
100
AcDbEntity
  8
0
  6
Continuous
100
AcDbLine
 10
13324.28221270213
 20
1108.840040385215
 30
0.0
 11
13419.29521486635
 21
1163.824619821332
 31
0.0
  0
LINE
  5
49
330
1F
100
AcDbEntity
  8
0
  6
Continuous
100
AcDbLine
 10
9810.183388928845
 20
1550.575662655812
 30
0.0
 11
8973.124121256551
 21
1066.164574197486
 31
0.0
  0
LINE
  5
4A
330
1F
100
AcDbEntity
  8
0
  6
Continuous
100
AcDbLine
 10
8973.124121256551
 20
790.0145741846276
 30
0.0
 11
8973.124121256551
 21
1066.164574197493
 31
0.0
  0
LINE
  5
4B
330
1F
100
AcDbEntity
  8
0
  6
Continuous
100
AcDbLine
 10
13419.29521486635
 20
1163.824619821332
 30
0.0
 11
13419.29521486635
 21
887.6746198084726
 31
0.0
  0
LINE
  5
4C
330
1F
100
AcDbEntity
  8
0
  6
Continuous
100
AcDbLine
 10
11911.11927363108
 20
273.9265877433992
 30
0.0
 11
11911.11927363108
 21
14.88439157047239
 31
0.0
  0
LINE
  5
4D
330
1F
100
AcDbEntity
  8
0
  6
Continuous
100
AcDbLine
 10
10326.09368014271
 20
2941.423612209017
 30
0.0
 11
11916.92067449614
 21
2521.716310226542
 31
0.0
  0
LINE
  5
4E
330
1F
100
AcDbEntity
  8
0
  6
Continuous
100
AcDbLine
 10
11913.00356484705
 20
273.4294558835475
 30
0.0
 11
11913.00356484705
 21
2519.449455988133
 31
0.0
  0
LINE
  5
4F
330
1F
100
AcDbEntity
  8
0
  6
Continuous
100
AcDbLine
 10
11913.00356484705
 20
2519.449455988133
 30
0.0
 11
10322.17657049362
 21
2939.156757970608
 31
0.0
  0
LINE
  5
50
330
1F
100
AcDbEntity
  8
0
  6
Continuous
100
AcDbLine
 10
10322.17657049362
 20
2939.156757970608
 30
0.0
 11
10322.17657049362
 21
693.1367578660206
 31
0.0
  0
LINE
  5
51
330
1F
100
AcDbEntity
  8
0
  6
Continuous
100
AcDbLine
 10
10322.17657049362
 20
693.1367578660206
 30
0.0
 11
10792.79150307201
 21
568.9745929503948
 31
0.0
  0
LINE
  5
52
330
1F
100
AcDbEntity
  8
0
  6
Continuous
100
AcDbLine
 10
10836.01493282711
 20
557.5709713439387
 30
0.0
 11
11290.05443436248
 21
437.7818963161237
 31
0.0
  0
LINE
  5
53
330
1F
100
AcDbEntity
  8
0
  6
Continuous
100
AcDbLine
 10
11333.27786411758
 20
426.3782747096662
 30
0.0
 11
11787.31736565295
 21
306.5891996818513
 31
0.0
  0
LINE
  5
54
330
1F
100
AcDbEntity
  8
0
  6
Continuous
100
AcDbLine
 10
11830.54079540804
 20
295.1855780753974
 30
0.0
 11
11913.00356484706
 21
273.4294558835466
 31
0.0
  0
LINE
  5
55
330
1F
100
AcDbEntity
  8
0
  6
Continuous
100
AcDbLine
 10
10322.17657049362
 20
2939.156757970608
 30
0.0
 11
10326.09368014271
 21
2941.423612209017
 31
0.0
  0
LINE
  5
56
330
1F
100
AcDbEntity
  8
0
  6
Continuous
100
AcDbLine
 10
11911.11927363108
 20
2523.246891687274
 30
0.0
 11
13318.48081183707
 21
3337.695235915683
 31
0.0
  0
LINE
  5
57
330
1F
100
AcDbEntity
  8
0
  6
Continuous
100
AcDbLine
 10
13324.28221270212
 20
1090.144654350364
 30
0.0
 11
13324.28221270213
 21
3336.164654454951
 31
0.0
  0
LINE
  5
58
330
1F
100
AcDbEntity
  8
0
  6
Continuous
100
AcDbLine
 10
13324.28221270213
 20
3336.164661788094
 30
0.0
 11
11913.00356484705
 21
2519.449463321276
 31
0.0
  0
LINE
  5
59
330
1F
100
AcDbEntity
  8
0
  6
Continuous
100
AcDbLine
 10
11916.92067449614
 20
2521.716310226542
 30
0.0
 11
11916.92067449614
 21
275.6963101219548
 31
0.0
  0
LINE
  5
5A
330
1F
100
AcDbEntity
  8
0
  6
Continuous
100
AcDbLine
 10
11913.00356484706
 20
273.4294558835466
 30
0.0
 11
11968.68248057328
 21
305.6511697009223
 31
0.0
  0
LINE
  5
5B
330
1F
100
AcDbEntity
  8
0
  6
Continuous
100
AcDbLine
 10
12005.98385222105
 20
327.237691395057
 30
0.0
 11
12214.6611486392
 21
448.0004619639288
 31
0.0
  0
LINE
  5
5C
330
1F
100
AcDbEntity
  8
0
  6
Continuous
100
AcDbLine
 10
13067.5621023388
 20
941.5792266763452
 30
0.0
 11
13324.28221270212
 21
1090.144654350364
 31
0.0
  0
LINE
  5
5D
330
1F
100
AcDbEntity
  8
0
  6
Continuous
100
AcDbLine
 10
13324.28221270213
 20
3336.164654454951
 30
0.0
 11
13318.48081183707
 21
3337.695235915683
 31
0.0
  0
LINE
  5
5E
330
1F
100
AcDbEntity
  8
0
  6
Continuous
100
AcDbLine
 10
13049.50052284732
 20
2957.830814665087
 30
0.0
 11
13057.02514378191
 21
2957.213178773903
 31
0.0
  0
LINE
  5
5F
330
1F
100
AcDbEntity
  8
0
  6
Continuous
100
AcDbLine
 10
13057.02514378191
 20
2957.213178773903
 30
0.0
 11
13076.03001641906
 21
2823.203766590924
 31
0.0
  0
LINE
  5
60
330
1F
100
AcDbEntity
  8
0
  6
Continuous
100
AcDbLine
 10
12789.29252472971
 20
2807.246925970768
 30
0.0
 11
12789.29252472971
 21
2759.936146701697
 31
0.0
  0
LINE
  5
61
330
1F
100
AcDbEntity
  8
0
  6
Continuous
100
AcDbLine
 10
12789.29252472971
 20
2759.936146701697
 30
0.0
 11
12801.50888065414
 21
2673.794728776569
 31
0.0
  0
LINE
  5
62
330
1F
100
AcDbEntity
  8
0
  6
Continuous
100
AcDbLine
 10
12801.50888065414
 20
2673.794728776569
 30
0.0
 11
12815.82201830146
 21
2672.619877896604
 31
0.0
  0
LINE
  5
63
330
1F
100
AcDbEntity
  8
0
  6
Continuous
100
AcDbLine
 10
12815.82201830146
 20
2672.619877896604
 30
0.0
 11
12796.8171456643
 21
2806.629290079587
 31
0.0
  0
LINE
  5
64
330
1F
100
AcDbEntity
  8
0
  6
Continuous
100
AcDbLine
 10
12796.8171456643
 20
2806.629290079587
 30
0.0
 11
12789.29252472971
 21
2807.246925970765
 31
0.0
  0
LINE
  5
65
330
1F
100
AcDbEntity
  8
0
  6
Continuous
100
AcDbLine
 10
13049.50052284732
 20
2957.830814665087
 30
0.0
 11
12789.29252472971
 21
2807.246925970765
 31
0.0
  0
LINE
  5
66
330
1F
100
AcDbEntity
  8
0
  6
Continuous
100
AcDbLine
 10
12796.8171456643
 20
2806.629290079587
 30
0.0
 11
13057.02514378191
 21
2957.213178773903
 31
0.0
  0
LINE
  5
67
330
1F
100
AcDbEntity
  8
0
  6
Continuous
100
AcDbLine
 10
12815.82201830146
 20
2672.619877896604
 30
0.0
 11
13076.03001641906
 21
2823.203766590924
 31
0.0
  0
LINE
  5
68
330
1F
100
AcDbEntity
  8
0
  6
Continuous
100
AcDbLine
 10
13062.63877493726
 20
2815.454176911276
 30
0.0
 11
13076.03001641906
 21
2721.028266586166
 31
0.0
  0
LINE
  5
69
330
1F
100
AcDbEntity
  8
0
  6
Continuous
100
AcDbLine
 10
12736.03791438865
 20
2674.25267183827
 30
0.0
 11
12736.03791438865
 21
2626.941892569202
 31
0.0
  0
LINE
  5
6A
330
1F
100
AcDbEntity
  8
0
  6
Continuous
100
AcDbLine
 10
12736.03791438865
 20
2626.941892569202
 30
0.0
 11
12748.25427031309
 21
2540.800474644072
 31
0.0
  0
LINE
  5
6B
330
1F
100
AcDbEntity
  8
0
  6
Continuous
100
AcDbLine
 10
12748.25427031309
 20
2540.800474644072
 30
0.0
 11
12762.5674079604
 21
2539.62562376411
 31
0.0
  0
LINE
  5
6C
330
1F
100
AcDbEntity
  8
0
  6
Continuous
100
AcDbLine
 10
12762.5674079604
 20
2539.62562376411
 30
0.0
 11
12743.56253532324
 21
2673.635035947092
 31
0.0
  0
LINE
  5
6D
330
1F
100
AcDbEntity
  8
0
  6
Continuous
100
AcDbLine
 10
12743.56253532324
 20
2673.635035947092
 30
0.0
 11
12736.03791438865
 21
2674.252671838268
 31
0.0
  0
LINE
  5
6E
330
1F
100
AcDbEntity
  8
0
  6
Continuous
100
AcDbLine
 10
12796.48315970746
 20
2709.232688436659
 30
0.0
 11
12736.03791438865
 21
2674.252671838268
 31
0.0
  0
LINE
  5
6F
330
1F
100
AcDbEntity
  8
0
  6
Continuous
100
AcDbLine
 10
12743.56253532324
 20
2673.635035947092
 30
0.0
 11
12796.8171456643
 21
2704.453790074829
 31
0.0
  0
LINE
  5
70
330
1F
100
AcDbEntity
  8
0
  6
Continuous
100
AcDbLine
 10
12762.5674079604
 20
2539.62562376411
 30
0.0
 11
13076.03001641906
 21
2721.028266586166
 31
0.0
  0
LINE
  5
71
330
1F
100
AcDbEntity
  8
0
  6
Continuous
100
AcDbLine
 10
13062.63877493727
 20
2713.278676906518
 30
0.0
 11
13076.03001641906
 21
2618.852766581409
 31
0.0
  0
LINE
  5
72
330
1F
100
AcDbEntity
  8
0
  6
Continuous
100
AcDbLine
 10
12687.31357790513
 20
2543.880113653835
 30
0.0
 11
12687.31357790513
 21
2496.569334384765
 31
0.0
  0
LINE
  5
73
330
1F
100
AcDbEntity
  8
0
  6
Continuous
100
AcDbLine
 10
12687.31357790513
 20
2496.569334384765
 30
0.0
 11
12699.52993382956
 21
2410.427916459635
 31
0.0
  0
LINE
  5
74
330
1F
100
AcDbEntity
  8
0
  6
Continuous
100
AcDbLine
 10
12699.52993382956
 20
2410.427916459633
 30
0.0
 11
12713.84307147687
 21
2409.253065579674
 31
0.0
  0
LINE
  5
75
330
1F
100
AcDbEntity
  8
0
  6
Continuous
100
AcDbLine
 10
12713.84307147687
 20
2409.253065579674
 30
0.0
 11
12694.83819883971
 21
2543.262477762655
 31
0.0
  0
LINE
  5
76
330
1F
100
AcDbEntity
  8
0
  6
Continuous
100
AcDbLine
 10
12694.83819883971
 20
2543.262477762655
 30
0.0
 11
12687.31357790513
 21
2543.880113653833
 31
0.0
  0
LINE
  5
77
330
1F
100
AcDbEntity
  8
0
  6
Continuous
100
AcDbLine
 10
12743.2285493664
 20
2576.238434304161
 30
0.0
 11
12687.31357790513
 21
2543.880113653833
 31
0.0
  0
LINE
  5
78
330
1F
100
AcDbEntity
  8
0
  6
Continuous
100
AcDbLine
 10
12694.83819883971
 20
2543.262477762655
 30
0.0
 11
12743.56253532324
 21
2571.459535942334
 31
0.0
  0
LINE
  5
79
330
1F
100
AcDbEntity
  8
0
  6
Continuous
100
AcDbLine
 10
12713.84307147687
 20
2409.253065579674
 30
0.0
 11
13076.03001641906
 21
2618.852766581409
 31
0.0
  0
LINE
  5
7A
330
1F
100
AcDbEntity
  8
0
  6
Continuous
100
AcDbLine
 10
13062.63877493727
 20
2611.103176901759
 30
0.0
 11
13076.03001641906
 21
2516.677266576655
 31
0.0
  0
LINE
  5
7B
330
1F
100
AcDbEntity
  8
0
  6
Continuous
100
AcDbLine
 10
12635.98256029937
 20
2411.999053875248
 30
0.0
 11
12635.98256029937
 21
2364.68827460618
 31
0.0
  0
LINE
  5
7C
330
1F
100
AcDbEntity
  8
0
  6
Continuous
100
AcDbLine
 10
12635.98256029937
 20
2364.68827460618
 30
0.0
 11
12648.19891622381
 21
2278.546856681046
 31
0.0
  0
LINE
  5
7D
330
1F
100
AcDbEntity
  8
0
  6
Continuous
100
AcDbLine
 10
12648.19891622381
 20
2278.546856681046
 30
0.0
 11
12662.51205387111
 21
2277.372005801089
 31
0.0
  0
LINE
  5
7E
330
1F
100
AcDbEntity
  8
0
  6
Continuous
100
AcDbLine
 10
12662.51205387111
 20
2277.372005801089
 30
0.0
 11
12643.50718123396
 21
2411.38141798407
 31
0.0
  0
LINE
  5
7F
330
1F
100
AcDbEntity
  8
0
  6
Continuous
100
AcDbLine
 10
12643.50718123396
 20
2411.38141798407
 30
0.0
 11
12635.98256029937
 21
2411.999053875248
 31
0.0
  0
LINE
  5
80
330
1F
100
AcDbEntity
  8
0
  6
Continuous
100
AcDbLine
 10
12694.50421288288
 20
2445.865876119729
 30
0.0
 11
12635.98256029937
 21
2411.999053875246
 31
0.0
  0
LINE
  5
81
330
1F
100
AcDbEntity
  8
0
  6
Continuous
100
AcDbLine
 10
12643.50718123396
 20
2411.38141798407
 30
0.0
 11
12694.83819883972
 21
2441.086977757904
 31
0.0
  0
LINE
  5
82
330
1F
100
AcDbEntity
  8
0
  6
Continuous
100
AcDbLine
 10
12662.51205387111
 20
2277.372005801089
 30
0.0
 11
13076.03001641906
 21
2516.677266576655
 31
0.0
  0
LINE
  5
83
330
1F
100
AcDbEntity
  8
0
  6
Continuous
100
AcDbLine
 10
13062.63877493727
 20
2508.927676897003
 30
0.0
 11
13076.03001641906
 21
2414.501766571896
 31
0.0
  0
LINE
  5
84
330
1F
100
AcDbEntity
  8
0
  6
Continuous
100
AcDbLine
 10
12624.04822123447
 20
2302.917082130996
 30
0.0
 11
12624.04822123447
 21
2255.606302861924
 31
0.0
  0
LINE
  5
85
330
1F
100
AcDbEntity
  8
0
  6
Continuous
100
AcDbLine
 10
12624.04822123447
 20
2255.606302861924
 30
0.0
 11
12636.2645771589
 21
2169.464884936795
 31
0.0
  0
LINE
  5
86
330
1F
100
AcDbEntity
  8
0
  6
Continuous
100
AcDbLine
 10
12636.2645771589
 20
2169.464884936795
 30
0.0
 11
12650.57771480622
 21
2168.290034056835
 31
0.0
  0
LINE
  5
87
330
1F
100
AcDbEntity
  8
0
  6
Continuous
100
AcDbLine
 10
12650.57771480621
 20
2168.290034056835
 30
0.0
 11
12631.57284216905
 21
2302.299446239818
 31
0.0
  0
LINE
  5
88
330
1F
100
AcDbEntity
  8
0
  6
Continuous
100
AcDbLine
 10
12631.57284216905
 20
2302.299446239818
 30
0.0
 11
12624.04822123447
 21
2302.917082130994
 31
0.0
  0
LINE
  5
89
330
1F
100
AcDbEntity
  8
0
  6
Continuous
100
AcDbLine
 10
12643.17319527712
 20
2313.984816341144
 30
0.0
 11
12624.04822123447
 21
2302.917082130994
 31
0.0
  0
LINE
  5
8A
330
1F
100
AcDbEntity
  8
0
  6
Continuous
100
AcDbLine
 10
12631.57284216905
 20
2302.299446239818
 30
0.0
 11
12643.50718123396
 21
2309.205917979312
 31
0.0
  0
LINE
  5
8B
330
1F
100
AcDbEntity
  8
0
  6
Continuous
100
AcDbLine
 10
12650.57771480622
 20
2168.290034056835
 30
0.0
 11
13076.03001641906
 21
2414.501766571896
 31
0.0
  0
LINE
  5
8C
330
1F
100
AcDbEntity
  8
0
  6
Continuous
100
AcDbLine
 10
13062.63877493727
 20
2406.752176892247
 30
0.0
 11
13076.03001641906
 21
2312.326266567135
 31
0.0
  0
LINE
  5
8D
330
1F
100
AcDbEntity
  8
0
  6
Continuous
100
AcDbLine
 10
12598.39227520813
 20
2185.894336273981
 30
0.0
 11
12598.39227520813
 21
2138.583557004909
 31
0.0
  0
LINE
  5
8E
330
1F
100
AcDbEntity
  8
0
  6
Continuous
100
AcDbLine
 10
12598.39227520813
 20
2138.583557004909
 30
0.0
 11
12610.60863113257
 21
2052.442139079781
 31
0.0
  0
LINE
  5
8F
330
1F
100
AcDbEntity
  8
0
  6
Continuous
100
AcDbLine
 10
12610.60863113257
 20
2052.442139079776
 30
0.0
 11
12624.92176877988
 21
2051.267288199816
 31
0.0
  0
LINE
  5
90
330
1F
100
AcDbEntity
  8
0
  6
Continuous
100
AcDbLine
 10
12624.92176877988
 20
2051.267288199816
 30
0.0
 11
12605.91689614272
 21
2185.276700382799
 31
0.0
  0
LINE
  5
91
330
1F
100
AcDbEntity
  8
0
  6
Continuous
100
AcDbLine
 10
12605.91689614272
 20
2185.276700382799
 30
0.0
 11
12598.39227520813
 21
2185.894336273981
 31
0.0
  0
LINE
  5
92
330
1F
100
AcDbEntity
  8
0
  6
Continuous
100
AcDbLine
 10
12631.23885621222
 20
2204.902844596892
 30
0.0
 11
12598.39227520813
 21
2185.894336273981
 31
0.0
  0
LINE
  5
93
330
1F
100
AcDbEntity
  8
0
  6
Continuous
100
AcDbLine
 10
12605.91689614272
 20
2185.276700382799
 30
0.0
 11
12631.57284216905
 21
2200.12394623506
 31
0.0
  0
LINE
  5
94
330
1F
100
AcDbEntity
  8
0
  6
Continuous
100
AcDbLine
 10
12624.92176877988
 20
2051.267288199816
 30
0.0
 11
13076.03001641906
 21
2312.326266567135
 31
0.0
  0
LINE
  5
95
330
1F
100
AcDbEntity
  8
0
  6
Continuous
100
AcDbLine
 10
13062.63877493726
 20
2304.576676887487
 30
0.0
 11
13076.03001641906
 21
2210.150766562377
 31
0.0
  0
LINE
  5
96
330
1F
100
AcDbEntity
  8
0
  6
Continuous
100
AcDbLine
 10
12587.03311825186
 20
2077.145225776312
 30
0.0
 11
12587.03311825186
 21
2029.834446507244
 31
0.0
  0
LINE
  5
97
330
1F
100
AcDbEntity
  8
0
  6
Continuous
100
AcDbLine
 10
12587.03311825186
 20
2029.834446507244
 30
0.0
 11
12599.2494741763
 21
1943.693028582112
 31
0.0
  0
LINE
  5
98
330
1F
100
AcDbEntity
  8
0
  6
Continuous
100
AcDbLine
 10
12599.2494741763
 20
1943.693028582112
 30
0.0
 11
12613.56261182361
 21
1942.518177702151
 31
0.0
  0
LINE
  5
99
330
1F
100
AcDbEntity
  8
0
  6
Continuous
100
AcDbLine
 10
12613.56261182361
 20
1942.518177702151
 30
0.0
 11
12594.55773918645
 21
2076.527589885134
 31
0.0
  0
LINE
  5
9A
330
1F
100
AcDbEntity
  8
0
  6
Continuous
100
AcDbLine
 10
12594.55773918645
 20
2076.527589885134
 30
0.0
 11
12587.03311825186
 21
2077.14522577631
 31
0.0
  0
LINE
  5
9B
330
1F
100
AcDbEntity
  8
0
  6
Continuous
100
AcDbLine
 10
12605.58291018588
 20
2087.880098739871
 30
0.0
 11
12587.03311825186
 21
2077.145225776308
 31
0.0
  0
LINE
  5
9C
330
1F
100
AcDbEntity
  8
0
  6
Continuous
100
AcDbLine
 10
12594.55773918645
 20
2076.527589885134
 30
0.0
 11
12605.91689614272
 21
2083.101200378041
 31
0.0
  0
LINE
  5
9D
330
1F
100
AcDbEntity
  8
0
  6
Continuous
100
AcDbLine
 10
12613.56261182361
 20
1942.518177702151
 30
0.0
 11
13076.03001641906
 21
2210.150766562377
 31
0.0
  0
LINE
  5
9E
330
1F
100
AcDbEntity
  8
0
  6
Continuous
100
AcDbLine
 10
13062.63877493726
 20
2202.401176882727
 30
0.0
 11
13076.03001641906
 21
2107.975266557619
 31
0.0
  0
LINE
  5
9F
330
1F
100
AcDbEntity
  8
0
  6
Continuous
100
AcDbLine
 10
12587.23046916977
 20
1975.083933900708
 30
0.0
 11
12587.23046916977
 21
1927.773154631639
 31
0.0
  0
LINE
  5
A0
330
1F
100
AcDbEntity
  8
0
  6
Continuous
100
AcDbLine
 10
12587.23046916977
 20
1927.773154631639
 30
0.0
 11
12599.4468250942
 21
1841.631736706504
 31
0.0
  0
LINE
  5
A1
330
1F
100
AcDbEntity
  8
0
  6
Continuous
100
AcDbLine
 10
12599.4468250942
 20
1841.631736706504
 30
0.0
 11
12613.75996274151
 21
1840.45688582655
 31
0.0
  0
LINE
  5
A2
330
1F
100
AcDbEntity
  8
0
  6
Continuous
100
AcDbLine
 10
12613.75996274151
 20
1840.456885826546
 30
0.0
 11
12599.11927659372
 21
1943.69302858211
 31
0.0
  0
LINE
  5
A3
330
1F
100
AcDbEntity
  8
0
  6
Continuous
100
AcDbLine
 10
12594.22375322961
 20
1979.130988242206
 30
0.0
 11
12587.23046916977
 21
1975.083933900703
 31
0.0
  0
LINE
  5
A4
330
1F
100
AcDbEntity
  8
0
  6
Continuous
100
AcDbLine
 10
12613.75996274151
 20
1840.45688582655
 30
0.0
 11
13076.03001641906
 21
2107.975266557619
 31
0.0
  0
LINE
  5
A5
330
1F
100
AcDbEntity
  8
0
  6
Continuous
100
AcDbLine
 10
13062.63877493726
 20
2100.225676877971
 30
0.0
 11
13076.03001641906
 21
2005.799766552865
 31
0.0
  0
LINE
  5
A6
330
1F
100
AcDbEntity
  8
0
  6
Continuous
100
AcDbLine
 10
12621.0297521144
 20
1844.663955408104
 30
0.0
 11
12633.18142387912
 21
1758.978646102396
 31
0.0
  0
LINE
  5
A7
330
1F
100
AcDbEntity
  8
0
  6
Continuous
100
AcDbLine
 10
12633.18142387912
 20
1758.978646102396
 30
0.0
 11
12647.49456152643
 21
1757.803795222442
 31
0.0
  0
LINE
  5
A8
330
1F
100
AcDbEntity
  8
0
  6
Continuous
100
AcDbLine
 10
12647.49456152643
 20
1757.803795222442
 30
0.0
 11
12634.10332004463
 21
1852.229705547548
 31
0.0
  0
LINE
  5
A9
330
1F
100
AcDbEntity
  8
0
  6
Continuous
100
AcDbLine
 10
12647.49456152643
 20
1757.803795222442
 30
0.0
 11
13076.03001641906
 21
2005.799766552865
 31
0.0
  0
LINE
  5
AA
330
1F
100
AcDbEntity
  8
0
  6
Continuous
100
AcDbLine
 10
13062.63877493727
 20
1998.050176873214
 30
0.0
 11
13076.03001641906
 21
1903.624266548107
 31
0.0
  0
LINE
  5
AB
330
1F
100
AcDbEntity
  8
0
  6
Continuous
100
AcDbLine
 10
12638.60750278308
 20
1758.533262725802
 30
0.0
 11
12651.52882611991
 21
1667.420894963333
 31
0.0
  0
LINE
  5
AC
330
1F
100
AcDbEntity
  8
0
  6
Continuous
100
AcDbLine
 10
12651.52882611991
 20
1667.420894963333
 30
0.0
 11
12665.84196376723
 21
1666.246044083376
 31
0.0
  0
LINE
  5
AD
330
1F
100
AcDbEntity
  8
0
  6
Continuous
100
AcDbLine
 10
12665.84196376723
 20
1666.246044083376
 30
0.0
 11
12652.45072228543
 21
1760.671954408484
 31
0.0
  0
LINE
  5
AE
330
1F
100
AcDbEntity
  8
0
  6
Continuous
100
AcDbLine
 10
12665.84196376723
 20
1666.246044083376
 30
0.0
 11
13076.03001641906
 21
1903.624266548107
 31
0.0
  0
LINE
  5
AF
330
1F
100
AcDbEntity
  8
0
  6
Continuous
100
AcDbLine
 10
13062.63877493726
 20
1895.874676868455
 30
0.0
 11
13076.03001641906
 21
1801.448766543344
 31
0.0
  0
LINE
  5
B0
330
1F
100
AcDbEntity
  8
0
  6
Continuous
100
AcDbLine
 10
12663.76290999494
 20
1665.536425239681
 30
0.0
 11
12675.97926591937
 21
1579.395007314547
 31
0.0
  0
LINE
  5
B1
330
1F
100
AcDbEntity
  8
0
  6
Continuous
100
AcDbLine
 10
12675.97926591937
 20
1579.395007314547
 30
0.0
 11
12690.29240356668
 21
1578.220156434588
 31
0.0
  0
LINE
  5
B2
330
1F
100
AcDbEntity
  8
0
  6
Continuous
100
AcDbLine
 10
12690.29240356668
 20
1578.220156434588
 30
0.0
 11
12676.90116208488
 21
1672.6460667597
 31
0.0
  0
LINE
  5
B3
330
1F
100
AcDbEntity
  8
0
  6
Continuous
100
AcDbLine
 10
12690.29240356668
 20
1578.220156434588
 30
0.0
 11
13076.03001641906
 21
1801.448766543344
 31
0.0
  0
LINE
  5
B4
330
1F
100
AcDbEntity
  8
0
  6
Continuous
100
AcDbLine
 10
13062.63877493727
 20
1793.699176863699
 30
0.0
 11
13076.03001641906
 21
1699.273266538588
 31
0.0
  0
LINE
  5
B5
330
1F
100
AcDbEntity
  8
0
  6
Continuous
100
AcDbLine
 10
12690.8709217101
 20
1578.554948263996
 30
0.0
 11
12703.02259347481
 21
1492.869638958294
 31
0.0
  0
LINE
  5
B6
330
1F
100
AcDbEntity
  8
0
  6
Continuous
100
AcDbLine
 10
12703.02259347481
 20
1492.869638958293
 30
0.0
 11
12717.33573112213
 21
1491.694788078331
 31
0.0
  0
LINE
  5
B7
330
1F
100
AcDbEntity
  8
0
  6
Continuous
100
AcDbLine
 10
12717.33573112213
 20
1491.694788078333
 30
0.0
 11
12703.94448964032
 21
1586.120698403443
 31
0.0
  0
LINE
  5
B8
330
1F
100
AcDbEntity
  8
0
  6
Continuous
100
AcDbLine
 10
12717.33573112213
 20
1491.694788078331
 30
0.0
 11
13076.03001641906
 21
1699.273266538588
 31
0.0
  0
LINE
  5
B9
330
1F
100
AcDbEntity
  8
0
  6
Continuous
100
AcDbLine
 10
13062.63877493726
 20
1691.523676858938
 30
0.0
 11
13076.03001641906
 21
1597.09776653383
 31
0.0
  0
LINE
  5
BA
330
1F
100
AcDbEntity
  8
0
  6
Continuous
100
AcDbLine
 10
12715.87047844968
 20
1491.340379517061
 30
0.0
 11
12728.08683437411
 21
1405.198961591926
 31
0.0
  0
LINE
  5
BB
330
1F
100
AcDbEntity
  8
0
  6
Continuous
100
AcDbLine
 10
12728.08683437411
 20
1405.198961591926
 30
0.0
 11
12742.39997202142
 21
1404.024110711969
 31
0.0
  0
LINE
  5
BC
330
1F
100
AcDbEntity
  8
0
  6
Continuous
100
AcDbLine
 10
12742.39997202142
 20
1404.024110711969
 30
0.0
 11
12729.00873053962
 21
1498.450021037077
 31
0.0
  0
LINE
  5
BD
330
1F
100
AcDbEntity
  8
0
  6
Continuous
100
AcDbLine
 10
12742.39997202142
 20
1404.024110711969
 30
0.0
 11
13076.03001641906
 21
1597.09776653383
 31
0.0
  0
LINE
  5
BE
330
1F
100
AcDbEntity
  8
0
  6
Continuous
100
AcDbLine
 10
13062.63877493726
 20
1589.34817685418
 30
0.0
 11
13076.03001641906
 21
1494.922266529072
 31
0.0
  0
LINE
  5
BF
330
1F
100
AcDbEntity
  8
0
  6
Continuous
100
AcDbLine
 10
12734.1452959528
 20
1404.701670984351
 30
0.0
 11
12734.1452959528
 21
1399.740623166248
 31
0.0
  0
LINE
  5
C0
330
1F
100
AcDbEntity
  8
0
  6
Continuous
100
AcDbLine
 10
12734.1452959528
 20
1399.740623166248
 30
0.0
 11
12746.36165187723
 21
1313.599205241114
 31
0.0
  0
LINE
  5
C1
330
1F
100
AcDbEntity
  8
0
  6
Continuous
100
AcDbLine
 10
12746.36165187723
 20
1313.599205241114
 30
0.0
 11
12760.67478952454
 21
1312.424354361157
 31
0.0
  0
LINE
  5
C2
330
1F
100
AcDbEntity
  8
0
  6
Continuous
100
AcDbLine
 10
12760.67478952454
 20
1312.424354361157
 30
0.0
 11
12747.28354804274
 21
1406.850264686263
 31
0.0
  0
LINE
  5
C3
330
1F
100
AcDbEntity
  8
0
  6
Continuous
100
AcDbLine
 10
12760.67478952454
 20
1312.424354361157
 30
0.0
 11
13076.03001641906
 21
1494.922266529072
 31
0.0
  0
LINE
  5
C4
330
1F
100
AcDbEntity
  8
0
  6
Continuous
100
AcDbLine
 10
13062.63877493727
 20
1487.172676849424
 30
0.0
 11
13076.03001641906
 21
1392.746766524318
 31
0.0
  0
LINE
  5
C5
330
1F
100
AcDbEntity
  8
0
  6
Continuous
100
AcDbLine
 10
12710.2031958045
 20
1331.02046920053
 30
0.0
 11
12710.2031958045
 21
1283.709689931458
 31
0.0
  0
LINE
  5
C6
330
1F
100
AcDbEntity
  8
0
  6
Continuous
100
AcDbLine
 10
12710.2031958045
 20
1283.709689931458
 30
0.0
 11
12722.41955172893
 21
1197.568272006326
 31
0.0
  0
LINE
  5
C7
330
1F
100
AcDbEntity
  8
0
  6
Continuous
100
AcDbLine
 10
12722.41955172894
 20
1197.568272006325
 30
0.0
 11
12736.73268937625
 21
1196.393421126367
 31
0.0
  0
LINE
  5
C8
330
1F
100
AcDbEntity
  8
0
  6
Continuous
100
AcDbLine
 10
12736.73268937625
 20
1196.393421126367
 30
0.0
 11
12717.72781673909
 21
1330.402833309348
 31
0.0
  0
LINE
  5
C9
330
1F
100
AcDbEntity
  8
0
  6
Continuous
100
AcDbLine
 10
12717.72781673909
 20
1330.402833309348
 30
0.0
 11
12710.2031958045
 21
1331.020469200527
 31
0.0
  0
LINE
  5
CA
330
1F
100
AcDbEntity
  8
0
  6
Continuous
100
AcDbLine
 10
12741.33593093054
 20
1349.037164901212
 30
0.0
 11
12710.2031958045
 21
1331.020469200527
 31
0.0
  0
LINE
  5
CB
330
1F
100
AcDbEntity
  8
0
  6
Continuous
100
AcDbLine
 10
12717.72781673909
 20
1330.402833309348
 30
0.0
 11
12741.66991688738
 21
1344.258266539378
 31
0.0
  0
LINE
  5
CC
330
1F
100
AcDbEntity
  8
0
  6
Continuous
100
AcDbLine
 10
12736.73268937625
 20
1196.393421126367
 30
0.0
 11
13076.03001641906
 21
1392.746766524315
 31
0.0
  0
LINE
  5
CD
330
1F
100
AcDbEntity
  8
0
  6
Continuous
100
AcDbLine
 10
13062.63877493727
 20
1384.997176844666
 30
0.0
 11
13076.03001641906
 21
1290.571266519558
 31
0.0
  0
LINE
  5
CE
330
1F
100
AcDbEntity
  8
0
  6
Continuous
100
AcDbLine
 10
12684.04914978067
 20
1213.70946996496
 30
0.0
 11
12684.04914978067
 21
1166.39869069589
 31
0.0
  0
LINE
  5
CF
330
1F
100
AcDbEntity
  8
0
  6
Continuous
100
AcDbLine
 10
12684.04914978067
 20
1166.39869069589
 30
0.0
 11
12696.2655057051
 21
1080.257272770759
 31
0.0
  0
LINE
  5
D0
330
1F
100
AcDbEntity
  8
0
  6
Continuous
100
AcDbLine
 10
12696.2655057051
 20
1080.257272770759
 30
0.0
 11
12710.57864335241
 21
1079.0824218908
 31
0.0
  0
LINE
  5
D1
330
1F
100
AcDbEntity
  8
0
  6
Continuous
100
AcDbLine
 10
12710.57864335241
 20
1079.0824218908
 30
0.0
 11
12691.57377071525
 21
1213.091834073781
 31
0.0
  0
LINE
  5
D2
330
1F
100
AcDbEntity
  8
0
  6
Continuous
100
AcDbLine
 10
12691.57377071525
 20
1213.091834073781
 30
0.0
 11
12684.04914978067
 21
1213.709469964958
 31
0.0
  0
LINE
  5
D3
330
1F
100
AcDbEntity
  8
0
  6
Continuous
100
AcDbLine
 10
12717.39383078225
 20
1233.00623166642
 30
0.0
 11
12684.04914978067
 21
1213.709469964958
 31
0.0
  0
LINE
  5
D4
330
1F
100
AcDbEntity
  8
0
  6
Continuous
100
AcDbLine
 10
12691.57377071525
 20
1213.091834073781
 30
0.0
 11
12717.72781673909
 21
1228.227333304588
 31
0.0
  0
LINE
  5
D5
330
1F
100
AcDbEntity
  8
0
  6
Continuous
100
AcDbLine
 10
12710.57864335241
 20
1079.0824218908
 30
0.0
 11
13076.03001641906
 21
1290.571266519557
 31
0.0
  0
LINE
  5
D6
330
1F
100
AcDbEntity
  8
0
  6
Continuous
100
AcDbLine
 10
13062.63877493726
 20
1282.821676839907
 30
0.0
 11
13076.03001641906
 21
1188.3957665148
 31
0.0
  0
LINE
  5
D7
330
1F
100
AcDbEntity
  8
0
  6
Continuous
100
AcDbLine
 10
12627.2630942559
 20
1078.671547873289
 30
0.0
 11
12627.2630942559
 21
1031.360768604219
 31
0.0
  0
LINE
  5
D8
330
1F
100
AcDbEntity
  8
0
  6
Continuous
100
AcDbLine
 10
12627.2630942559
 20
1031.360768604219
 30
0.0
 11
12639.47945018033
 21
945.2193506790878
 31
0.0
  0
LINE
  5
D9
330
1F
100
AcDbEntity
  8
0
  6
Continuous
100
AcDbLine
 10
12639.47945018033
 20
945.2193506790878
 30
0.0
 11
12653.79258782764
 21
944.0444997991286
 31
0.0
  0
LINE
  5
DA
330
1F
100
AcDbEntity
  8
0
  6
Continuous
100
AcDbLine
 10
12653.79258782764
 20
944.0444997991286
 30
0.0
 11
12634.78771519048
 21
1078.053911982109
 31
0.0
  0
LINE
  5
DB
330
1F
100
AcDbEntity
  8
0
  6
Continuous
100
AcDbLine
 10
12634.78771519048
 20
1078.053911982109
 30
0.0
 11
12627.2630942559
 21
1078.671547873287
 31
0.0
  0
LINE
  5
DC
330
1F
100
AcDbEntity
  8
0
  6
Continuous
100
AcDbLine
 10
12691.23978475842
 20
1115.695232430852
 30
0.0
 11
12627.2630942559
 21
1078.671547873287
 31
0.0
  0
LINE
  5
DD
330
1F
100
AcDbEntity
  8
0
  6
Continuous
100
AcDbLine
 10
12634.78771519048
 20
1078.053911982109
 30
0.0
 11
12691.57377071525
 21
1110.916334069019
 31
0.0
  0
LINE
  5
DE
330
1F
100
AcDbEntity
  8
0
  6
Continuous
100
AcDbLine
 10
12653.79258782764
 20
944.0444997991286
 30
0.0
 11
13076.03001641906
 21
1188.395766514799
 31
0.0
  0
LINE
  5
DF
330
1F
100
AcDbEntity
  8
0
  6
Continuous
100
AcDbLine
 10
13062.63877493726
 20
1180.646176835151
 30
0.0
 11
13076.03001641906
 21
1086.220266510043
 31
0.0
  0
LINE
  5
E0
330
1F
100
AcDbEntity
  8
0
  6
Continuous
100
AcDbLine
 10
12559.0504944732
 20
937.0210178635565
 30
0.0
 11
12559.0504944732
 21
889.7102385944868
 31
0.0
  0
LINE
  5
E1
330
1F
100
AcDbEntity
  8
0
  6
Continuous
100
AcDbLine
 10
12559.0504944732
 20
889.7102385944868
 30
0.0
 11
12571.26685039763
 21
803.5688206693554
 31
0.0
  0
LINE
  5
E2
330
1F
100
AcDbEntity
  8
0
  6
Continuous
100
AcDbLine
 10
12571.26685039763
 20
803.5688206693573
 30
0.0
 11
12585.57998804494
 21
802.3939697893962
 31
0.0
  0
LINE
  5
E3
330
1F
100
AcDbEntity
  8
0
  6
Continuous
100
AcDbLine
 10
12585.57998804494
 20
802.3939697893962
 30
0.0
 11
12566.57511540779
 21
936.4033819723785
 31
0.0
  0
LINE
  5
E4
330
1F
100
AcDbEntity
  8
0
  6
Continuous
100
AcDbLine
 10
12566.57511540779
 20
936.4033819723785
 30
0.0
 11
12559.0504944732
 21
937.0210178635548
 31
0.0
  0
LINE
  5
E5
330
1F
100
AcDbEntity
  8
0
  6
Continuous
100
AcDbLine
 10
12634.45372923365
 20
980.657310339185
 30
0.0
 11
12559.0504944732
 21
937.021017863553
 31
0.0
  0
LINE
  5
E6
330
1F
100
AcDbEntity
  8
0
  6
Continuous
100
AcDbLine
 10
12566.57511540779
 20
936.4033819723785
 30
0.0
 11
12634.78771519048
 21
975.8784119773547
 31
0.0
  0
LINE
  5
E7
330
1F
100
AcDbEntity
  8
0
  6
Continuous
100
AcDbLine
 10
12585.57998804494
 20
802.3939697893962
 30
0.0
 11
13076.03001641906
 21
1086.220266510041
 31
0.0
  0
LINE
  5
E8
330
1F
100
AcDbEntity
  8
0
  6
Continuous
100
AcDbLine
 10
13062.63877493727
 20
1078.470676830394
 30
0.0
 11
13076.03001641906
 21
984.0447665052827
 31
0.0
  0
LINE
  5
E9
330
1F
100
AcDbEntity
  8
0
  6
Continuous
100
AcDbLine
 10
12369.75043485614
 20
725.2964674321478
 30
0.0
 11
12369.75043485614
 21
677.9856881630782
 31
0.0
  0
LINE
  5
EA
330
1F
100
AcDbEntity
  8
0
  6
Continuous
100
AcDbLine
 10
12369.75043485614
 20
677.9856881630782
 30
0.0
 11
12381.96679078057
 21
591.8442702379467
 31
0.0
  0
LINE
  5
EB
330
1F
100
AcDbEntity
  8
0
  6
Continuous
100
AcDbLine
 10
12381.96679078057
 20
591.8442702379467
 30
0.0
 11
12396.27992842788
 21
590.6694193579875
 31
0.0
  0
LINE
  5
EC
330
1F
100
AcDbEntity
  8
0
  6
Continuous
100
AcDbLine
 10
12396.27992842788
 20
590.6694193579875
 30
0.0
 11
12377.27505579073
 21
724.678831540968
 31
0.0
  0
LINE
  5
ED
330
1F
100
AcDbEntity
  8
0
  6
Continuous
100
AcDbLine
 10
12377.27505579073
 20
724.678831540968
 30
0.0
 11
12369.75043485614
 21
725.2964674321461
 31
0.0
  0
LINE
  5
EE
330
1F
100
AcDbEntity
  8
0
  6
Continuous
100
AcDbLine
 10
12566.24112945095
 20
839.0067803294507
 30
0.0
 11
12369.75043485614
 21
725.2964674321461
 31
0.0
  0
LINE
  5
EF
330
1F
100
AcDbEntity
  8
0
  6
Continuous
100
AcDbLine
 10
12377.27505579073
 20
724.678831540968
 30
0.0
 11
12566.57511540778
 21
834.2278819676152
 31
0.0
  0
LINE
  5
F0
330
1F
100
AcDbEntity
  8
0
  6
Continuous
100
AcDbLine
 10
12396.27992842788
 20
590.6694193579875
 30
0.0
 11
13076.03001641906
 21
984.0447665052827
 31
0.0
  0
LINE
  5
F1
330
1F
100
AcDbEntity
  8
0
  6
Continuous
100
AcDbLine
 10
13062.63877493726
 20
976.2951768256368
 30
0.0
 11
13076.03001641906
 21
881.8692665005252
 31
0.0
  0
LINE
  5
F2
330
1F
100
AcDbEntity
  8
0
  6
Continuous
100
AcDbLine
 10
12209.67313707794
 20
530.4833000017167
 30
0.0
 11
12209.67313707794
 21
483.1725207326465
 31
0.0
  0
LINE
  5
F3
330
1F
100
AcDbEntity
  8
0
  6
Continuous
100
AcDbLine
 10
12209.6766184049
 20
483.1479727870951
 30
0.0
 11
12221.88949300238
 21
397.0311028075151
 31
0.0
  0
LINE
  5
F4
330
1F
100
AcDbEntity
  8
0
  6
Continuous
100
AcDbLine
 10
12221.88949300238
 20
397.0311028075151
 30
0.0
 11
12236.20263064969
 21
395.8562519275541
 31
0.0
  0
LINE
  5
F5
330
1F
100
AcDbEntity
  8
0
  6
Continuous
100
AcDbLine
 10
12236.20263064969
 20
395.8562519275541
 30
0.0
 11
12217.19775801253
 21
529.8656641105368
 31
0.0
  0
LINE
  5
F6
330
1F
100
AcDbEntity
  8
0
  6
Continuous
100
AcDbLine
 10
12217.19775801253
 20
529.8656641105368
 30
0.0
 11
12209.67313707794
 21
530.483300001713
 31
0.0
  0
LINE
  5
F7
330
1F
100
AcDbEntity
  8
0
  6
Continuous
100
AcDbLine
 10
12376.94106983389
 20
627.2822298980425
 30
0.0
 11
12209.67313707794
 21
530.483300001713
 31
0.0
  0
LINE
  5
F8
330
1F
100
AcDbEntity
  8
0
  6
Continuous
100
AcDbLine
 10
12217.19775801253
 20
529.8656641105368
 30
0.0
 11
12377.27505579073
 21
622.5033315362101
 31
0.0
  0
LINE
  5
F9
330
1F
100
AcDbEntity
  8
0
  6
Continuous
100
AcDbLine
 10
12236.20263064969
 20
395.8562519275541
 30
0.0
 11
13076.03001641906
 21
881.8692665005234
 31
0.0
  0
LINE
  5
FA
330
1F
100
AcDbEntity
  8
0
  6
Continuous
100
AcDbLine
 10
9897.840947120976
 20
906.0518513970339
 30
0.0
 11
9847.478108775631
 21
876.906582617488
 31
0.0
  0
LINE
  5
FB
330
1F
100
AcDbEntity
  8
0
  6
Continuous
100
AcDbLine
 10
9847.478108775631
 20
876.906582617488
 30
0.0
 11
9810.183388928845
 21
886.7460348650579
 31
0.0
  0
LINE
  5
FC
330
1F
100
AcDbEntity
  8
0
  6
Continuous
100
AcDbLine
 10
9897.840947120976
 20
2989.974373562312
 30
0.0
 11
9897.840947120976
 21
1988.140601464638
 31
0.0
  0
LINE
  5
FD
330
1F
100
AcDbEntity
  8
0
  6
Continuous
100
AcDbLine
 10
9897.840947120976
 20
1904.285623528972
 30
0.0
 11
9897.840947120976
 21
906.0518513970339
 31
0.0
  0
LINE
  5
FE
330
1F
100
AcDbEntity
  8
0
  6
Continuous
100
AcDbLine
 10
9897.840947120972
 20
906.0518513970339
 30
0.0
 11
9897.840947120974
 21
1904.285623528972
 31
0.0
  0
LINE
  5
FF
330
1F
100
AcDbEntity
  8
0
  6
Continuous
100
AcDbLine
 10
9897.840947120976
 20
1988.140601464638
 30
0.0
 11
9897.840947120976
 21
2989.974373562312
 31
0.0
  0
LINE
  5
100
330
1F
100
AcDbEntity
  8
0
  6
Continuous
100
AcDbLine
 10
9897.840947120972
 20
906.0518513970339
 30
0.0
 11
9847.478108775631
 21
876.906582617488
 31
0.0
  0
LINE
  5
101
330
1F
100
AcDbEntity
  8
0
  6
Continuous
100
AcDbLine
 10
9897.840947120972
 20
906.0518513970339
 30
0.0
 11
9897.840947120974
 21
1904.285623528972
 31
0.0
  0
LINE
  5
102
330
1F
100
AcDbEntity
  8
0
  6
Continuous
100
AcDbLine
 10
9897.840947120976
 20
1988.140601464638
 30
0.0
 11
9897.840947120976
 21
2989.974373562312
 31
0.0
  0
LINE
  5
103
330
1F
100
AcDbEntity
  8
0
  6
Continuous
100
AcDbLine
 10
10322.17657049362
 20
751.6670617078831
 30
0.0
 11
10307.44632021931
 21
755.5533382307873
 31
0.0
  0
LINE
  5
104
330
1F
100
AcDbEntity
  8
0
  6
Continuous
100
AcDbLine
 10
12319.35262414763
 20
2742.037180770128
 30
0.0
 11
12341.73610785668
 21
2754.990633561037
 31
0.0
  0
LINE
  5
105
330
1F
100
AcDbEntity
  8
0
  6
Continuous
100
AcDbLine
 10
12304.43473620892
 20
2745.972961669158
 30
0.0
 11
12341.73610785668
 21
2754.990633561039
 31
0.0
  0
LINE
  5
106
330
1F
100
AcDbEntity
  8
0
  6
Continuous
100
AcDbLine
 10
12341.73610785668
 20
2754.990633561039
 30
0.0
 11
12326.81821991796
 21
2758.926414460067
 31
0.0
  0
LINE
  5
107
330
1F
100
AcDbEntity
  8
0
  6
Continuous
100
AcDbLine
 10
12341.73610785668
 20
606.9089127278744
 30
0.0
 11
12341.73610785668
 21
2754.990633561039
 31
0.0
  0
LINE
  5
108
330
1F
100
AcDbEntity
  8
0
  6
Continuous
100
AcDbLine
 10
12304.43473620892
 20
2745.972961669158
 30
0.0
 11
12319.35262414764
 21
2742.037180770128
 31
0.0
  0
LINE
  5
109
330
1F
100
AcDbEntity
  8
0
  6
Continuous
100
AcDbLine
 10
12319.35262414764
 20
2742.037180770128
 30
0.0
 11
12326.81821991796
 21
2758.926414460067
 31
0.0
  0
LINE
  5
10A
330
1F
100
AcDbEntity
  8
0
  6
Continuous
100
AcDbLine
 10
12319.35262414764
 20
2742.037180770128
 30
0.0
 11
12319.35262414763
 21
593.9554599369634
 31
0.0
  0
LINE
  5
10B
330
1F
100
AcDbEntity
  8
0
  6
Continuous
100
AcDbLine
 10
12304.43473620892
 20
2745.972961669158
 30
0.0
 11
12304.43473620892
 21
585.3223910337468
 31
0.0
  0
LINE
  5
10C
330
1F
100
AcDbEntity
  8
0
  6
Continuous
100
AcDbLine
 10
12640.18699184454
 20
2940.274753532794
 30
0.0
 11
12655.10487978326
 21
2936.338972633766
 31
0.0
  0
LINE
  5
10D
330
1F
100
AcDbEntity
  8
0
  6
Continuous
100
AcDbLine
 10
12640.18699184454
 20
2940.274753532794
 30
0.0
 11
12640.18699184454
 21
2414.43218297351
 31
0.0
  0
LINE
  5
10E
330
1F
100
AcDbEntity
  8
0
  6
Continuous
100
AcDbLine
 10
12655.10487978326
 20
2423.065251876731
 30
0.0
 11
12655.10487978326
 21
2936.338972633766
 31
0.0
  0
LINE
  5
10F
330
1F
100
AcDbEntity
  8
0
  6
Continuous
100
AcDbLine
 10
12677.4883634923
 20
2436.018704667636
 30
0.0
 11
12677.4883634923
 21
2949.292425424675
 31
0.0
  0
LINE
  5
110
330
1F
100
AcDbEntity
  8
0
  6
Continuous
100
AcDbLine
 10
12677.4883634923
 20
2949.292425424675
 30
0.0
 11
12640.18699184454
 21
2940.27475353279
 31
0.0
  0
LINE
  5
111
330
1F
100
AcDbEntity
  8
0
  6
Continuous
100
AcDbLine
 10
12640.18699184454
 20
2940.27475353279
 30
0.0
 11
12655.10487978326
 21
2936.338972633764
 31
0.0
  0
LINE
  5
112
330
1F
100
AcDbEntity
  8
0
  6
Continuous
100
AcDbLine
 10
12655.10487978326
 20
2936.338972633764
 30
0.0
 11
12677.4883634923
 21
2949.292425424675
 31
0.0
  0
LINE
  5
113
330
1F
100
AcDbEntity
  8
0
  6
Continuous
100
AcDbLine
 10
12640.18699184454
 20
1086.150682911655
 30
0.0
 11
12640.18699184454
 21
1746.834482740723
 31
0.0
  0
LINE
  5
114
330
1F
100
AcDbEntity
  8
0
  6
Continuous
100
AcDbLine
 10
12640.18699184454
 20
2414.432182973512
 30
0.0
 11
12640.18699184454
 21
2940.27475353279
 31
0.0
  0
LINE
  5
115
330
1F
100
AcDbEntity
  8
0
  6
Continuous
100
AcDbLine
 10
12655.10487978326
 20
2423.065251876729
 30
0.0
 11
12655.10487978326
 21
2936.338972633764
 31
0.0
  0
LINE
  5
116
330
1F
100
AcDbEntity
  8
0
  6
Continuous
100
AcDbLine
 10
12677.4883634923
 20
2949.292425424675
 30
0.0
 11
12677.4883634923
 21
2436.018704667636
 31
0.0
  0
LINE
  5
117
330
1F
100
AcDbEntity
  8
0
  6
Continuous
100
AcDbLine
 10
12655.10487978326
 20
2936.338972633764
 30
0.0
 11
12677.4883634923
 21
2949.292425424671
 31
0.0
  0
LINE
  5
118
330
1F
100
AcDbEntity
  8
0
  6
Continuous
100
AcDbLine
 10
12677.4883634923
 20
2949.292425424671
 30
0.0
 11
12662.57047555358
 21
2953.228206323701
 31
0.0
  0
LINE
  5
119
330
1F
100
AcDbEntity
  8
0
  6
Continuous
100
AcDbLine
 10
12662.57047555358
 20
2953.228206323701
 30
0.0
 11
12655.10487978326
 21
2936.338972633764
 31
0.0
  0
LINE
  5
11A
330
1F
100
AcDbEntity
  8
0
  6
Continuous
100
AcDbLine
 10
12655.10487978326
 20
1094.783751814869
 30
0.0
 11
12655.10487978326
 21
1667.127365347625
 31
0.0
  0
LINE
  5
11B
330
1F
100
AcDbEntity
  8
0
  6
Continuous
100
AcDbLine
 10
12655.10487978326
 20
2423.065251876729
 30
0.0
 11
12655.10487978326
 21
2936.338972633764
 31
0.0
  0
LINE
  5
11C
330
1F
100
AcDbEntity
  8
0
  6
Continuous
100
AcDbLine
 10
12677.4883634923
 20
2949.292425424671
 30
0.0
 11
12677.4883634923
 21
2436.018704667636
 31
0.0
  0
LINE
  5
11D
330
1F
100
AcDbEntity
  8
0
  6
Continuous
100
AcDbLine
 10
12677.4883634923
 20
1579.271137576462
 30
0.0
 11
12677.4883634923
 21
1107.737204605782
 31
0.0
  0
LINE
  5
11E
330
1F
100
AcDbEntity
  8
0
  6
Continuous
100
AcDbLine
 10
13013.24061912793
 20
3143.594217288311
 30
0.0
 11
12998.32273118921
 21
3147.529998187339
 31
0.0
  0
LINE
  5
11F
330
1F
100
AcDbEntity
  8
0
  6
Continuous
100
AcDbLine
 10
12990.85713541888
 20
3130.6407644974
 30
0.0
 11
13013.24061912793
 21
3143.594217288311
 31
0.0
  0
LINE
  5
120
330
1F
100
AcDbEntity
  8
0
  6
Continuous
100
AcDbLine
 10
12975.93924748017
 20
3134.57654539643
 30
0.0
 11
13013.24061912793
 21
3143.594217288311
 31
0.0
  0
LINE
  5
121
330
1F
100
AcDbEntity
  8
0
  6
Continuous
100
AcDbLine
 10
13013.24061912793
 20
3143.594217288311
 30
0.0
 11
12998.32273118921
 21
3147.529998187339
 31
0.0
  0
LINE
  5
122
330
1F
100
AcDbEntity
  8
0
  6
Continuous
100
AcDbLine
 10
13013.24061912793
 20
2936.846996545551
 30
0.0
 11
13013.24061912793
 21
3143.594217288311
 31
0.0
  0
LINE
  5
123
330
1F
100
AcDbEntity
  8
0
  6
Continuous
100
AcDbLine
 10
12975.93924748017
 20
3134.57654539643
 30
0.0
 11
12975.93924748017
 21
2915.260474851424
 31
0.0
  0
LINE
  5
124
330
1F
100
AcDbEntity
  8
0
  6
Continuous
100
AcDbLine
 10
12975.93924748017
 20
3134.57654539643
 30
0.0
 11
12990.85713541888
 21
3130.640764497402
 31
0.0
  0
LINE
  5
125
330
1F
100
AcDbEntity
  8
0
  6
Continuous
100
AcDbLine
 10
12990.85713541888
 20
3130.640764497402
 30
0.0
 11
12998.32273118921
 21
3147.529998187341
 31
0.0
  0
LINE
  5
126
330
1F
100
AcDbEntity
  8
0
  6
Continuous
100
AcDbLine
 10
12990.85713541888
 20
3130.640764497402
 30
0.0
 11
12990.85713541888
 21
2923.89354375464
 31
0.0
  0
LINE
  5
127
330
1F
100
AcDbEntity
  8
0
  6
Continuous
100
AcDbLine
 10
12975.93924748017
 20
3134.57654539643
 30
0.0
 11
12975.93924748017
 21
2915.260474851422
 31
0.0
  0
LINE
  5
128
330
1F
100
AcDbEntity
  8
0
  6
Continuous
100
AcDbLine
 10
11983.60036851201
 20
2547.735388906492
 30
0.0
 11
12005.98385222105
 21
2560.688841697399
 31
0.0
  0
LINE
  5
129
330
1F
100
AcDbEntity
  8
0
  6
Continuous
100
AcDbLine
 10
12005.98385222105
 20
314.6688415928107
 30
0.0
 11
11983.60036851201
 21
301.7153888019015
 31
0.0
  0
LINE
  5
12A
330
1F
100
AcDbEntity
  8
0
  6
Continuous
100
AcDbLine
 10
12005.98385222105
 20
2560.688841697399
 30
0.0
 11
12005.98385222105
 21
314.6688415928107
 31
0.0
  0
LINE
  5
12B
330
1F
100
AcDbEntity
  8
0
  6
Continuous
100
AcDbLine
 10
11968.68248057329
 20
2551.671169805518
 30
0.0
 11
12005.98385222105
 21
2560.688841697399
 31
0.0
  0
LINE
  5
12C
330
1F
100
AcDbEntity
  8
0
  6
Continuous
100
AcDbLine
 10
12005.98385222105
 20
2560.688841697399
 30
0.0
 11
11991.06596428233
 21
2564.624622596429
 31
0.0
  0
LINE
  5
12D
330
1F
100
AcDbEntity
  8
0
  6
Continuous
100
AcDbLine
 10
12005.98385222105
 20
314.6688415928107
 30
0.0
 11
12005.98385222105
 21
2560.688841697399
 31
0.0
  0
LINE
  5
12E
330
1F
100
AcDbEntity
  8
0
  6
Continuous
100
AcDbLine
 10
11983.60036851201
 20
301.7153888019015
 30
0.0
 11
11968.68248057329
 21
305.6511697009294
 31
0.0
  0
LINE
  5
12F
330
1F
100
AcDbEntity
  8
0
  6
Continuous
100
AcDbLine
 10
11968.68248057329
 20
2551.671169805518
 30
0.0
 11
11983.60036851201
 21
2547.735388906492
 31
0.0
  0
LINE
  5
130
330
1F
100
AcDbEntity
  8
0
  6
Continuous
100
AcDbLine
 10
11983.60036851201
 20
2547.735388906492
 30
0.0
 11
11991.06596428233
 21
2564.624622596429
 31
0.0
  0
LINE
  5
131
330
1F
100
AcDbEntity
  8
0
  6
Continuous
100
AcDbLine
 10
11983.60036851201
 20
2547.735388906492
 30
0.0
 11
11983.60036851201
 21
301.7153888019015
 31
0.0
  0
LINE
  5
132
330
1F
100
AcDbEntity
  8
0
  6
Continuous
100
AcDbLine
 10
11968.68248057329
 20
2551.671169805518
 30
0.0
 11
11968.68248057329
 21
305.6511697009294
 31
0.0
  0
LINE
  5
133
330
1F
100
AcDbEntity
  8
0
  6
Continuous
100
AcDbLine
 10
11787.31736565295
 20
2544.122704199691
 30
0.0
 11
11820.46822773898
 21
2535.376524424074
 31
0.0
  0
LINE
  5
134
330
1F
100
AcDbEntity
  8
0
  6
Continuous
100
AcDbLine
 10
11820.46822773898
 20
289.356524319484
 30
0.0
 11
11787.31736565295
 21
298.1027040951028
 31
0.0
  0
LINE
  5
135
330
1F
100
AcDbEntity
  8
0
  6
Continuous
100
AcDbLine
 10
11820.46822773898
 20
2535.376524424074
 30
0.0
 11
11820.46822773898
 21
289.356524319484
 31
0.0
  0
LINE
  5
136
330
1F
100
AcDbEntity
  8
0
  6
Continuous
100
AcDbLine
 10
11830.54079540805
 20
295.1855780753951
 30
0.0
 11
11820.46822773898
 21
289.3565243194858
 31
0.0
  0
LINE
  5
137
330
1F
100
AcDbEntity
  8
0
  6
Continuous
100
AcDbLine
 10
11797.38993332202
 20
2549.951757955601
 30
0.0
 11
11820.46822773899
 21
2535.376524424073
 31
0.0
  0
LINE
  5
138
330
1F
100
AcDbEntity
  8
0
  6
Continuous
100
AcDbLine
 10
11820.46822773899
 20
2535.376524424073
 30
0.0
 11
11830.54079540805
 21
2541.205578179982
 31
0.0
  0
LINE
  5
139
330
1F
100
AcDbEntity
  8
0
  6
Continuous
100
AcDbLine
 10
11820.46822773898
 20
289.3565243194858
 30
0.0
 11
11820.46822773899
 21
2535.376524424073
 31
0.0
  0
LINE
  5
13A
330
1F
100
AcDbEntity
  8
0
  6
Continuous
100
AcDbLine
 10
11830.54079540805
 20
295.1855780753951
 30
0.0
 11
11830.54079540805
 21
2541.205578179982
 31
0.0
  0
LINE
  5
13B
330
1F
100
AcDbEntity
  8
0
  6
Continuous
100
AcDbLine
 10
11797.38993332202
 20
2549.951757955601
 30
0.0
 11
11787.31736565295
 21
2544.122704199691
 31
0.0
  0
LINE
  5
13C
330
1F
100
AcDbEntity
  8
0
  6
Continuous
100
AcDbLine
 10
11787.31736565295
 20
2544.122704199691
 30
0.0
 11
11830.54079540805
 21
2541.205578179982
 31
0.0
  0
LINE
  5
13D
330
1F
100
AcDbEntity
  8
0
  6
Continuous
100
AcDbLine
 10
11830.54079540805
 20
295.1855780753951
 30
0.0
 11
11830.54079540805
 21
2541.205578179982
 31
0.0
  0
LINE
  5
13E
330
1F
100
AcDbEntity
  8
0
  6
Continuous
100
AcDbLine
 10
11787.31736565295
 20
2544.122704199691
 30
0.0
 11
11787.31736565295
 21
298.1027040951028
 31
0.0
  0
LINE
  5
13F
330
1F
100
AcDbEntity
  8
0
  6
Continuous
100
AcDbLine
 10
11333.27786411758
 20
426.3782747096662
 30
0.0
 11
11323.20529644851
 21
420.5492209537564
 31
0.0
  0
LINE
  5
140
330
1F
100
AcDbEntity
  8
0
  6
Continuous
100
AcDbLine
 10
11323.20529644851
 20
420.5492209537564
 30
0.0
 11
11290.05443436248
 21
429.2954007293752
 31
0.0
  0
LINE
  5
141
330
1F
100
AcDbEntity
  8
0
  6
Continuous
100
AcDbLine
 10
11323.20529644851
 20
2666.569221058345
 30
0.0
 11
11300.12700203155
 21
2681.144454589875
 31
0.0
  0
LINE
  5
142
330
1F
100
AcDbEntity
  8
0
  6
Continuous
100
AcDbLine
 10
11300.12700203155
 20
2681.144454589875
 30
0.0
 11
11290.05443436248
 21
2675.315400833966
 31
0.0
  0
LINE
  5
143
330
1F
100
AcDbEntity
  8
0
  6
Continuous
100
AcDbLine
 10
11290.05443436248
 20
2675.315400833966
 30
0.0
 11
11323.20529644851
 21
2666.569221058345
 31
0.0
  0
LINE
  5
144
330
1F
100
AcDbEntity
  8
0
  6
Continuous
100
AcDbLine
 10
11290.05443436248
 20
429.2954007293752
 30
0.0
 11
11290.05443436248
 21
2675.315400833966
 31
0.0
  0
LINE
  5
145
330
1F
100
AcDbEntity
  8
0
  6
Continuous
100
AcDbLine
 10
11333.27786411758
 20
426.3782747096662
 30
0.0
 11
11323.20529644851
 21
420.5492209537564
 31
0.0
  0
LINE
  5
146
330
1F
100
AcDbEntity
  8
0
  6
Continuous
100
AcDbLine
 10
11323.20529644851
 20
420.5492209537564
 30
0.0
 11
11290.05443436248
 21
429.2954007293752
 31
0.0
  0
LINE
  5
147
330
1F
100
AcDbEntity
  8
0
  6
Continuous
100
AcDbLine
 10
11290.05443436248
 20
2675.315400833966
 30
0.0
 11
11323.20529644851
 21
2666.569221058349
 31
0.0
  0
LINE
  5
148
330
1F
100
AcDbEntity
  8
0
  6
Continuous
100
AcDbLine
 10
11323.20529644851
 20
2666.569221058349
 30
0.0
 11
11333.27786411758
 21
2672.398274814255
 31
0.0
  0
LINE
  5
149
330
1F
100
AcDbEntity
  8
0
  6
Continuous
100
AcDbLine
 10
11333.27786411758
 20
2672.398274814255
 30
0.0
 11
11290.05443436248
 21
2675.315400833966
 31
0.0
  0
LINE
  5
14A
330
1F
100
AcDbEntity
  8
0
  6
Continuous
100
AcDbLine
 10
11290.05443436248
 20
429.2954007293752
 30
0.0
 11
11290.05443436248
 21
2675.315400833966
 31
0.0
  0
LINE
  5
14B
330
1F
100
AcDbEntity
  8
0
  6
Continuous
100
AcDbLine
 10
11333.27786411758
 20
2672.398274814255
 30
0.0
 11
11333.27786411758
 21
426.3782747096662
 31
0.0
  0
LINE
  5
14C
330
1F
100
AcDbEntity
  8
0
  6
Continuous
100
AcDbLine
 10
11323.20529644851
 20
2666.569221058349
 30
0.0
 11
11323.20529644851
 21
420.5492209537564
 31
0.0
  0
LINE
  5
14D
330
1F
100
AcDbEntity
  8
0
  6
Continuous
100
AcDbLine
 10
10825.94236515805
 20
2797.761917692619
 30
0.0
 11
10836.01493282712
 21
2803.590971448529
 31
0.0
  0
LINE
  5
14E
330
1F
100
AcDbEntity
  8
0
  6
Continuous
100
AcDbLine
 10
10802.86407074108
 20
2812.337151224145
 30
0.0
 11
10792.79150307201
 21
2806.508097468236
 31
0.0
  0
LINE
  5
14F
330
1F
100
AcDbEntity
  8
0
  6
Continuous
100
AcDbLine
 10
10792.79150307201
 20
2806.508097468236
 30
0.0
 11
10825.94236515805
 21
2797.761917692619
 31
0.0
  0
LINE
  5
150
330
1F
100
AcDbEntity
  8
0
  6
Continuous
100
AcDbLine
 10
10825.94236515805
 20
551.7419175880281
 30
0.0
 11
10792.79150307201
 21
560.4880973636468
 31
0.0
  0
LINE
  5
151
330
1F
100
AcDbEntity
  8
0
  6
Continuous
100
AcDbLine
 10
10836.01493282711
 20
557.5709713439396
 30
0.0
 11
10825.94236515804
 21
551.7419175880298
 31
0.0
  0
LINE
  5
152
330
1F
100
AcDbEntity
  8
0
  6
Continuous
100
AcDbLine
 10
10802.86407074109
 20
2812.337151224145
 30
0.0
 11
10825.94236515805
 21
2797.761917692617
 31
0.0
  0
LINE
  5
153
330
1F
100
AcDbEntity
  8
0
  6
Continuous
100
AcDbLine
 10
10825.94236515805
 20
2797.761917692617
 30
0.0
 11
10836.01493282712
 21
2803.590971448526
 31
0.0
  0
LINE
  5
154
330
1F
100
AcDbEntity
  8
0
  6
Continuous
100
AcDbLine
 10
10825.94236515804
 20
551.7419175880298
 30
0.0
 11
10825.94236515805
 21
2797.761917692617
 31
0.0
  0
LINE
  5
155
330
1F
100
AcDbEntity
  8
0
  6
Continuous
100
AcDbLine
 10
10802.86407074109
 20
2812.337151224145
 30
0.0
 11
10792.79150307202
 21
2806.508097468236
 31
0.0
  0
LINE
  5
156
330
1F
100
AcDbEntity
  8
0
  6
Continuous
100
AcDbLine
 10
10792.79150307202
 20
2806.508097468236
 30
0.0
 11
10836.01493282712
 21
2803.590971448526
 31
0.0
  0
LINE
  5
157
330
1F
100
AcDbEntity
  8
0
  6
Continuous
100
AcDbLine
 10
10836.01493282711
 20
557.5709713439396
 30
0.0
 11
10836.01493282712
 21
2803.590971448526
 31
0.0
  0
LINE
  5
158
330
1F
100
AcDbEntity
  8
0
  6
Continuous
100
AcDbLine
 10
10792.79150307202
 20
2806.508097468236
 30
0.0
 11
10792.79150307201
 21
560.4880973636468
 31
0.0
  0
LINE
  5
159
330
1F
100
AcDbEntity
  8
0
  6
Continuous
100
AcDbLine
 10
9539.17509137553
 20
3084.601054629754
 30
0.0
 11
9539.17509137553
 21
3126.023554631682
 31
0.0
  0
LINE
  5
15A
330
1F
100
AcDbEntity
  8
0
  6
Continuous
100
AcDbLine
 10
9539.175091375531
 20
3084.601054629754
 30
0.0
 11
9539.175091375531
 21
3126.023554631682
 31
0.0
  0
LINE
  5
15B
330
1F
100
AcDbEntity
  8
0
  6
Continuous
100
AcDbLine
 10
11911.11927363108
 20
332.456891585259
 30
0.0
 11
11911.11927363108
 21
291.0343915833304
 31
0.0
  0
LINE
  5
15C
330
1F
100
AcDbEntity
  8
0
  6
Continuous
100
AcDbLine
 10
9539.17509137553
 20
958.2460545307416
 30
0.0
 11
9589.537929720875
 21
987.391323310288
 31
0.0
  0
LINE
  5
15D
330
1F
100
AcDbEntity
  8
0
  6
Continuous
100
AcDbLine
 10
9539.17509137553
 20
916.8235545288112
 30
0.0
 11
9539.17509137553
 21
958.2460545307416
 31
0.0
  0
LINE
  5
15E
330
1F
100
AcDbEntity
  8
0
  6
Continuous
100
AcDbLine
 10
9539.175091375531
 20
916.8235545288112
 30
0.0
 11
9539.175091375531
 21
958.2460545307416
 31
0.0
  0
LINE
  5
15F
330
1F
100
AcDbEntity
  8
0
  6
Continuous
100
AcDbLine
 10
11911.11927363108
 20
332.456891585259
 30
0.0
 11
11911.11927363108
 21
291.0343915833287
 31
0.0
  0
LINE
  5
160
330
1F
100
AcDbEntity
  8
0
  6
Continuous
100
AcDbLine
 10
13419.29521486635
 20
1205.247119823261
 30
0.0
 11
13419.29521486635
 21
1163.824619821332
 31
0.0
  0
LINE
  5
161
330
1F
100
AcDbEntity
  8
0
  6
Continuous
100
AcDbLine
 10
13344.70577517278
 20
1224.926024318401
 30
0.0
 11
13419.29521486635
 21
1205.247119823261
 31
0.0
  0
LINE
  5
162
330
1F
100
AcDbEntity
  8
0
  6
Continuous
100
AcDbLine
 10
13419.29521486635
 20
1205.247119823261
 30
0.0
 11
13324.28221270213
 21
1150.262540387144
 31
0.0
  0
LINE
  5
163
330
1F
100
AcDbEntity
  8
0
  6
Continuous
100
AcDbLine
 10
13324.28221270213
 20
1108.840040385215
 30
0.0
 11
13419.29521486635
 21
1163.824619821332
 31
0.0
  0
LINE
  5
164
330
1F
100
AcDbEntity
  8
0
  6
Continuous
100
AcDbLine
 10
13329.67255369159
 20
1216.226211220357
 30
0.0
 11
13344.70577517278
 21
1224.926024318401
 31
0.0
  0
LINE
  5
165
330
1F
100
AcDbEntity
  8
0
  6
Continuous
100
AcDbLine
 10
13419.29521486635
 20
1205.247119823259
 30
0.0
 11
13419.29521486635
 21
1163.824619821331
 31
0.0
  0
LINE
  5
166
330
1F
100
AcDbEntity
  8
0
  6
Continuous
100
AcDbLine
 10
13324.28221270213
 20
1150.262540387144
 30
0.0
 11
13419.29521486635
 21
1205.247119823261
 31
0.0
  0
LINE
  5
167
330
1F
100
AcDbEntity
  8
0
  6
Continuous
100
AcDbLine
 10
13324.28221270213
 20
1108.840040385217
 30
0.0
 11
13419.29521486635
 21
1163.824619821332
 31
0.0
  0
LINE
  5
168
330
1F
100
AcDbEntity
  8
0
  6
Continuous
100
AcDbLine
 10
13324.28221270213
 20
1108.840040385212
 30
0.0
 11
13419.29521486635
 21
1163.824619821329
 31
0.0
  0
LINE
  5
169
330
1F
100
AcDbEntity
  8
0
  6
Continuous
100
AcDbLine
 10
13344.70577517278
 20
1224.926024318399
 30
0.0
 11
13329.67255369159
 21
1216.226211220355
 31
0.0
  0
LINE
  5
16A
330
1F
100
AcDbEntity
  8
0
  6
Continuous
100
AcDbLine
 10
11911.11927363107
 20
2759.325891697476
 30
0.0
 11
13419.29521486635
 21
3632.116119935477
 31
0.0
  0
LINE
  5
16B
330
1F
100
AcDbEntity
  8
0
  6
Continuous
100
AcDbLine
 10
13229.90169482535
 20
3682.083742808057
 30
0.0
 11
12993.92029805597
 21
3744.342628097079
 31
0.0
  0
LINE
  5
16C
330
1F
100
AcDbEntity
  8
0
  6
Continuous
100
AcDbLine
 10
12894.14943918972
 20
3770.665137169315
 30
0.0
 11
10481.30006249181
 21
4407.246302549635
 31
0.0
  0
LINE
  5
16D
330
1F
100
AcDbEntity
  8
0
  6
Continuous
100
AcDbLine
 10
10481.30006249181
 20
4407.246302549635
 30
0.0
 11
8973.124121256551
 21
3534.456074311633
 31
0.0
  0
LINE
  5
16E
330
1F
100
AcDbEntity
  8
0
  6
Continuous
100
AcDbLine
 10
8973.124121256551
 20
3275.364574300362
 30
0.0
 11
8973.124121256551
 21
3534.456074311632
 31
0.0
  0
LINE
  5
16F
330
1F
100
AcDbEntity
  8
0
  6
Continuous
100
AcDbLine
 10
11911.11927363108
 20
2800.748391699415
 30
0.0
 11
11911.11927363108
 21
2523.246891687274
 31
0.0
  0
LINE
  5
170
330
1F
100
AcDbEntity
  8
0
  6
Continuous
100
AcDbLine
 10
9897.840947120978
 20
3843.79835153304
 30
0.0
 11
9860.546227274192
 21
3853.63780378061
 31
0.0
  0
LINE
  5
171
330
1F
100
AcDbEntity
  8
0
  6
Continuous
100
AcDbLine
 10
9897.840947120978
 20
3374.343351511177
 30
0.0
 11
9897.840947120978
 21
3843.79835153304
 31
0.0
  0
LINE
  5
172
330
1F
100
AcDbEntity
  8
0
  6
Continuous
100
AcDbLine
 10
9847.478108775633
 20
3814.653082753495
 30
0.0
 11
9897.840947120976
 21
3843.79835153304
 31
0.0
  0
LINE
  5
173
330
1F
100
AcDbEntity
  8
0
  6
Continuous
100
AcDbLine
 10
9897.840947120976
 20
3843.79835153304
 30
0.0
 11
9810.183388928846
 21
3824.492535001065
 31
0.0
  0
LINE
  5
174
330
1F
100
AcDbEntity
  8
0
  6
Continuous
100
AcDbLine
 10
9897.84094712098
 20
3374.343351511176
 30
0.0
 11
9847.478108775636
 21
3345.198082731631
 31
0.0
  0
LINE
  5
175
330
1F
100
AcDbEntity
  8
0
  6
Continuous
100
AcDbLine
 10
9897.840947120976
 20
3843.79835153304
 30
0.0
 11
9897.840947120978
 21
3374.343351511177
 31
0.0
  0
LINE
  5
176
330
1F
100
AcDbEntity
  8
0
  6
Continuous
100
AcDbLine
 10
9847.478108775633
 20
3814.653082753495
 30
0.0
 11
9860.54622727419
 21
3853.63780378061
 31
0.0
  0
LINE
  5
177
330
1F
100
AcDbEntity
  8
0
  6
Continuous
100
AcDbLine
 10
9860.54622727419
 20
3853.63780378061
 30
0.0
 11
9810.183388928846
 21
3824.492535001065
 31
0.0
  0
LINE
  5
178
330
1F
100
AcDbEntity
  8
0
  6
Continuous
100
AcDbLine
 10
9810.183388928846
 20
3824.492535001065
 30
0.0
 11
9847.478108775633
 21
3814.653082753495
 31
0.0
  0
LINE
  5
179
330
1F
100
AcDbEntity
  8
0
  6
Continuous
100
AcDbLine
 10
9847.478108775633
 20
3814.653082753495
 30
0.0
 11
9847.478108775631
 21
3345.198082731631
 31
0.0
  0
LINE
  5
17A
330
1F
100
AcDbEntity
  8
0
  6
Continuous
100
AcDbLine
 10
9810.183388928852
 20
3355.037534979201
 30
0.0
 11
9810.183388928846
 21
3824.492535001065
 31
0.0
  0
LINE
  5
17B
330
1F
100
AcDbEntity
  8
0
  6
Continuous
100
AcDbLine
 10
11301.97218280025
 20
3430.914445098249
 30
0.0
 11
11339.26690264704
 21
3421.074992850679
 31
0.0
  0
LINE
  5
17C
330
1F
100
AcDbEntity
  8
0
  6
Continuous
100
AcDbLine
 10
11352.3350211456
 20
3460.059713877798
 30
0.0
 11
11301.97218280025
 21
3430.914445098249
 31
0.0
  0
LINE
  5
17D
330
1F
100
AcDbEntity
  8
0
  6
Continuous
100
AcDbLine
 10
11352.3350211456
 20
3460.059713877794
 30
0.0
 11
11301.97218280026
 21
3430.914445098249
 31
0.0
  0
LINE
  5
17E
330
1F
100
AcDbEntity
  8
0
  6
Continuous
100
AcDbLine
 10
11301.97218280026
 20
3430.914445098249
 30
0.0
 11
11389.62974099238
 21
3450.220261630223
 31
0.0
  0
LINE
  5
17F
330
1F
100
AcDbEntity
  8
0
  6
Continuous
100
AcDbLine
 10
11301.97218280026
 20
3430.914445098249
 30
0.0
 11
11301.97218280025
 21
2961.459445076389
 31
0.0
  0
LINE
  5
180
330
1F
100
AcDbEntity
  8
0
  6
Continuous
100
AcDbLine
 10
11352.3350211456
 20
3460.059713877794
 30
0.0
 11
11339.26690264704
 21
3421.074992850679
 31
0.0
  0
LINE
  5
181
330
1F
100
AcDbEntity
  8
0
  6
Continuous
100
AcDbLine
 10
11339.26690264704
 20
3421.074992850679
 30
0.0
 11
11389.62974099238
 21
3450.220261630223
 31
0.0
  0
LINE
  5
182
330
1F
100
AcDbEntity
  8
0
  6
Continuous
100
AcDbLine
 10
11389.62974099238
 20
3450.220261630223
 30
0.0
 11
11352.3350211456
 21
3460.059713877794
 31
0.0
  0
LINE
  5
183
330
1F
100
AcDbEntity
  8
0
  6
Continuous
100
AcDbLine
 10
11389.62974099238
 20
2980.765261608365
 30
0.0
 11
11339.26690264704
 21
2951.619992828821
 31
0.0
  0
LINE
  5
184
330
1F
100
AcDbEntity
  8
0
  6
Continuous
100
AcDbLine
 10
11339.26690264704
 20
2951.619992828819
 30
0.0
 11
11339.26690264704
 21
3421.074992850679
 31
0.0
  0
LINE
  5
185
330
1F
100
AcDbEntity
  8
0
  6
Continuous
100
AcDbLine
 10
11389.62974099238
 20
2980.765261608365
 30
0.0
 11
11389.62974099238
 21
3450.220261630223
 31
0.0
  0
LINE
  5
186
330
1F
100
AcDbEntity
  8
0
  6
Continuous
100
AcDbLine
 10
10395.10387841144
 20
3243.150654876905
 30
0.0
 11
10344.7410400661
 21
3214.00538609736
 31
0.0
  0
LINE
  5
187
330
1F
100
AcDbEntity
  8
0
  6
Continuous
100
AcDbLine
 10
10307.44632021932
 20
3693.299838366791
 30
0.0
 11
10344.7410400661
 21
3683.460386119221
 31
0.0
  0
LINE
  5
188
330
1F
100
AcDbEntity
  8
0
  6
Continuous
100
AcDbLine
 10
10357.80915856466
 20
3722.445107146335
 30
0.0
 11
10307.44632021932
 21
3693.299838366791
 31
0.0
  0
LINE
  5
189
330
1F
100
AcDbEntity
  8
0
  6
Continuous
100
AcDbLine
 10
10307.44632021932
 20
3693.299838366791
 30
0.0
 11
10395.10387841145
 21
3712.605654898765
 31
0.0
  0
LINE
  5
18A
330
1F
100
AcDbEntity
  8
0
  6
Continuous
100
AcDbLine
 10
10307.44632021932
 20
3693.299838366791
 30
0.0
 11
10307.44632021932
 21
3223.84483834493
 31
0.0
  0
LINE
  5
18B
330
1F
100
AcDbEntity
  8
0
  6
Continuous
100
AcDbLine
 10
10357.80915856466
 20
3722.445107146335
 30
0.0
 11
10344.7410400661
 21
3683.460386119221
 31
0.0
  0
LINE
  5
18C
330
1F
100
AcDbEntity
  8
0
  6
Continuous
100
AcDbLine
 10
10344.7410400661
 20
3683.460386119221
 30
0.0
 11
10395.10387841145
 21
3712.605654898765
 31
0.0
  0
LINE
  5
18D
330
1F
100
AcDbEntity
  8
0
  6
Continuous
100
AcDbLine
 10
10395.10387841145
 20
3712.605654898765
 30
0.0
 11
10357.80915856466
 21
3722.445107146335
 31
0.0
  0
LINE
  5
18E
330
1F
100
AcDbEntity
  8
0
  6
Continuous
100
AcDbLine
 10
10344.7410400661
 20
3214.00538609736
 30
0.0
 11
10344.7410400661
 21
3683.460386119221
 31
0.0
  0
LINE
  5
18F
330
1F
100
AcDbEntity
  8
0
  6
Continuous
100
AcDbLine
 10
10395.10387841144
 20
3243.150654876907
 30
0.0
 11
10395.10387841145
 21
3712.605654898765
 31
0.0
  0
LINE
  5
190
330
1F
100
AcDbEntity
  8
0
  6
Continuous
100
AcDbLine
 10
10892.36680970191
 20
3111.957958242634
 30
0.0
 11
10842.00397135657
 21
3082.81268946309
 31
0.0
  0
LINE
  5
191
330
1F
100
AcDbEntity
  8
0
  6
Continuous
100
AcDbLine
 10
10804.70925150978
 20
3562.10714173252
 30
0.0
 11
10842.00397135657
 21
3552.26768948495
 31
0.0
  0
LINE
  5
192
330
1F
100
AcDbEntity
  8
0
  6
Continuous
100
AcDbLine
 10
10855.07208985513
 20
3591.252410512065
 30
0.0
 11
10804.70925150979
 21
3562.10714173252
 31
0.0
  0
LINE
  5
193
330
1F
100
AcDbEntity
  8
0
  6
Continuous
100
AcDbLine
 10
10804.70925150979
 20
3562.10714173252
 30
0.0
 11
10892.36680970191
 21
3581.412958264495
 31
0.0
  0
LINE
  5
194
330
1F
100
AcDbEntity
  8
0
  6
Continuous
100
AcDbLine
 10
10804.70925150979
 20
3562.10714173252
 30
0.0
 11
10804.70925150978
 21
3092.652141710659
 31
0.0
  0
LINE
  5
195
330
1F
100
AcDbEntity
  8
0
  6
Continuous
100
AcDbLine
 10
10855.07208985513
 20
3591.252410512065
 30
0.0
 11
10842.00397135657
 21
3552.26768948495
 31
0.0
  0
LINE
  5
196
330
1F
100
AcDbEntity
  8
0
  6
Continuous
100
AcDbLine
 10
10842.00397135657
 20
3552.26768948495
 30
0.0
 11
10892.36680970191
 21
3581.412958264495
 31
0.0
  0
LINE
  5
197
330
1F
100
AcDbEntity
  8
0
  6
Continuous
100
AcDbLine
 10
10892.36680970191
 20
3581.412958264495
 30
0.0
 11
10855.07208985513
 21
3591.252410512065
 31
0.0
  0
LINE
  5
198
330
1F
100
AcDbEntity
  8
0
  6
Continuous
100
AcDbLine
 10
10842.00397135657
 20
3082.81268946309
 30
0.0
 11
10842.00397135657
 21
3552.26768948495
 31
0.0
  0
LINE
  5
199
330
1F
100
AcDbEntity
  8
0
  6
Continuous
100
AcDbLine
 10
10892.36680970191
 20
3111.957958242636
 30
0.0
 11
10892.36680970191
 21
3581.412958264495
 31
0.0
  0
LINE
  5
19A
330
1F
100
AcDbEntity
  8
0
  6
Continuous
100
AcDbLine
 10
11911.11927363108
 20
3270.203391721268
 30
0.0
 11
11986.6635311491
 21
3313.921294890586
 31
0.0
  0
LINE
  5
19B
330
1F
100
AcDbEntity
  8
0
  6
Continuous
100
AcDbLine
 10
11886.89267228285
 20
3319.027564995953
 30
0.0
 11
11886.89267228285
 21
3287.605440490339
 31
0.0
  0
LINE
  5
19C
330
1F
100
AcDbEntity
  8
0
  6
Continuous
100
AcDbLine
 10
11986.6635311491
 20
3313.921294890586
 30
0.0
 11
11986.6635311491
 21
2844.466294868724
 31
0.0
  0
LINE
  5
19D
330
1F
100
AcDbEntity
  8
0
  6
Continuous
100
AcDbLine
 10
11961.48211197643
 20
3299.348660500813
 30
0.0
 11
11912.07409145553
 21
3333.600199385726
 31
0.0
  0
LINE
  5
19E
330
1F
100
AcDbEntity
  8
0
  6
Continuous
100
AcDbLine
 10
11886.89267228285
 20
3319.027564995953
 30
0.0
 11
11886.89267228285
 21
3287.605440490339
 31
0.0
  0
LINE
  5
19F
330
1F
100
AcDbEntity
  8
0
  6
Continuous
100
AcDbLine
 10
11886.89267228285
 20
3319.027564995953
 30
0.0
 11
11986.6635311491
 21
3313.921294890586
 31
0.0
  0
LINE
  5
1A0
330
1F
100
AcDbEntity
  8
0
  6
Continuous
100
AcDbLine
 10
11986.6635311491
 20
3313.921294890586
 30
0.0
 11
11912.07409145553
 21
3333.600199385726
 31
0.0
  0
LINE
  5
1A1
330
1F
100
AcDbEntity
  8
0
  6
Continuous
100
AcDbLine
 10
11886.89267228285
 20
3319.027564995953
 30
0.0
 11
11886.89267228285
 21
3287.605440490339
 31
0.0
  0
LINE
  5
1A2
330
1F
100
AcDbEntity
  8
0
  6
Continuous
100
AcDbLine
 10
11986.6635311491
 20
2844.466294868724
 30
0.0
 11
11986.6635311491
 21
3313.921294890586
 31
0.0
  0
LINE
  5
1A3
330
1F
100
AcDbEntity
  8
0
  6
Continuous
100
AcDbLine
 10
12297.23436761205
 20
3024.195452342588
 30
0.0
 11
12222.64492791848
 21
3043.874356837729
 31
0.0
  0
LINE
  5
1A4
330
1F
100
AcDbEntity
  8
0
  6
Continuous
100
AcDbLine
 10
12297.23436761205
 20
3493.650452364449
 30
0.0
 11
12322.41578678472
 21
3508.223086754222
 31
0.0
  0
LINE
  5
1A5
330
1F
100
AcDbEntity
  8
0
  6
Continuous
100
AcDbLine
 10
12222.64492791848
 20
3513.329356859591
 30
0.0
 11
12297.23436761205
 21
3493.650452364449
 31
0.0
  0
LINE
  5
1A6
330
1F
100
AcDbEntity
  8
0
  6
Continuous
100
AcDbLine
 10
12297.23436761205
 20
3493.650452364449
 30
0.0
 11
12247.82634709115
 21
3527.901991249362
 31
0.0
  0
LINE
  5
1A7
330
1F
100
AcDbEntity
  8
0
  6
Continuous
100
AcDbLine
 10
12297.23436761205
 20
3493.650452364449
 30
0.0
 11
12297.23436761205
 21
3024.195452342588
 31
0.0
  0
LINE
  5
1A8
330
1F
100
AcDbEntity
  8
0
  6
Continuous
100
AcDbLine
 10
12222.64492791848
 20
3513.329356859591
 30
0.0
 11
12322.41578678472
 21
3508.223086754222
 31
0.0
  0
LINE
  5
1A9
330
1F
100
AcDbEntity
  8
0
  6
Continuous
100
AcDbLine
 10
12322.41578678472
 20
3508.223086754222
 30
0.0
 11
12247.82634709115
 21
3527.901991249362
 31
0.0
  0
LINE
  5
1AA
330
1F
100
AcDbEntity
  8
0
  6
Continuous
100
AcDbLine
 10
12247.82634709115
 20
3527.901991249362
 30
0.0
 11
12222.64492791848
 21
3513.329356859591
 31
0.0
  0
LINE
  5
1AB
330
1F
100
AcDbEntity
  8
0
  6
Continuous
100
AcDbLine
 10
12222.64492791848
 20
3513.329356859591
 30
0.0
 11
12222.64492791848
 21
3043.874356837729
 31
0.0
  0
LINE
  5
1AC
330
1F
100
AcDbEntity
  8
0
  6
Continuous
100
AcDbLine
 10
12322.41578678472
 20
3038.768086732362
 30
0.0
 11
12322.41578678472
 21
3508.223086754222
 31
0.0
  0
LINE
  5
1AD
330
1F
100
AcDbEntity
  8
0
  6
Continuous
100
AcDbLine
 10
12632.98662324767
 20
3687.952244228087
 30
0.0
 11
12658.16804242035
 21
3702.52487861786
 31
0.0
  0
LINE
  5
1AE
330
1F
100
AcDbEntity
  8
0
  6
Continuous
100
AcDbLine
 10
12632.98662324767
 20
3218.497244206226
 30
0.0
 11
12558.3971835541
 21
3238.176148701366
 31
0.0
  0
LINE
  5
1AF
330
1F
100
AcDbEntity
  8
0
  6
Continuous
100
AcDbLine
 10
12558.39718355411
 20
3707.631148723227
 30
0.0
 11
12658.16804242035
 21
3702.52487861786
 31
0.0
  0
LINE
  5
1B0
330
1F
100
AcDbEntity
  8
0
  6
Continuous
100
AcDbLine
 10
12658.16804242035
 20
3702.52487861786
 30
0.0
 11
12583.57860272678
 21
3722.203783113
 31
0.0
  0
LINE
  5
1B1
330
1F
100
AcDbEntity
  8
0
  6
Continuous
100
AcDbLine
 10
12658.16804242034
 20
3233.069878595998
 30
0.0
 11
12658.16804242035
 21
3702.524878617858
 31
0.0
  0
LINE
  5
1B2
330
1F
100
AcDbEntity
  8
0
  6
Continuous
100
AcDbLine
 10
12583.57860272677
 20
3722.203783113
 30
0.0
 11
12558.3971835541
 21
3707.631148723227
 31
0.0
  0
LINE
  5
1B3
330
1F
100
AcDbEntity
  8
0
  6
Continuous
100
AcDbLine
 10
12558.3971835541
 20
3707.631148723227
 30
0.0
 11
12632.98662324767
 21
3687.952244228087
 31
0.0
  0
LINE
  5
1B4
330
1F
100
AcDbEntity
  8
0
  6
Continuous
100
AcDbLine
 10
12632.98662324767
 20
3687.952244228087
 30
0.0
 11
12583.57860272677
 21
3722.203783113
 31
0.0
  0
LINE
  5
1B5
330
1F
100
AcDbEntity
  8
0
  6
Continuous
100
AcDbLine
 10
12632.98662324767
 20
3687.952244228087
 30
0.0
 11
12632.98662324767
 21
3218.497244206226
 31
0.0
  0
LINE
  5
1B6
330
1F
100
AcDbEntity
  8
0
  6
Continuous
100
AcDbLine
 10
12558.3971835541
 20
3707.631148723227
 30
0.0
 11
12558.3971835541
 21
3238.176148701366
 31
0.0
  0
LINE
  5
1B7
330
1F
100
AcDbEntity
  8
0
  6
Continuous
100
AcDbLine
 10
12968.7388788833
 20
3412.799036069862
 30
0.0
 11
12894.14943918972
 21
3432.477940565004
 31
0.0
  0
LINE
  5
1B8
330
1F
100
AcDbEntity
  8
0
  6
Continuous
100
AcDbLine
 10
12919.3308583624
 20
3916.505574976638
 30
0.0
 11
12894.14943918972
 21
3901.932940586865
 31
0.0
  0
LINE
  5
1B9
330
1F
100
AcDbEntity
  8
0
  6
Continuous
100
AcDbLine
 10
12993.92029805597
 20
3896.826670481496
 30
0.0
 11
12919.3308583624
 21
3916.505574976638
 31
0.0
  0
LINE
  5
1BA
330
1F
100
AcDbEntity
  8
0
  6
Continuous
100
AcDbLine
 10
12919.3308583624
 20
3916.505574976638
 30
0.0
 11
12968.7388788833
 21
3882.254036091723
 31
0.0
  0
LINE
  5
1BB
330
1F
100
AcDbEntity
  8
0
  6
Continuous
100
AcDbLine
 10
12993.92029805597
 20
3896.826670481494
 30
0.0
 11
12894.14943918972
 21
3901.932940586863
 31
0.0
  0
LINE
  5
1BC
330
1F
100
AcDbEntity
  8
0
  6
Continuous
100
AcDbLine
 10
12894.14943918972
 20
3901.932940586863
 30
0.0
 11
12968.7388788833
 21
3882.254036091723
 31
0.0
  0
LINE
  5
1BD
330
1F
100
AcDbEntity
  8
0
  6
Continuous
100
AcDbLine
 10
12968.7388788833
 20
3882.254036091723
 30
0.0
 11
12993.92029805597
 21
3896.826670481494
 31
0.0
  0
LINE
  5
1BE
330
1F
100
AcDbEntity
  8
0
  6
Continuous
100
AcDbLine
 10
12993.92029805597
 20
3896.826670481494
 30
0.0
 11
12993.92029805597
 21
3427.371670459634
 31
0.0
  0
LINE
  5
1BF
330
1F
100
AcDbEntity
  8
0
  6
Continuous
100
AcDbLine
 10
12894.14943918972
 20
3432.477940565001
 30
0.0
 11
12894.14943918972
 21
3901.932940586863
 31
0.0
  0
LINE
  5
1C0
330
1F
100
AcDbEntity
  8
0
  6
Continuous
100
AcDbLine
 10
12968.7388788833
 20
3412.799036069862
 30
0.0
 11
12968.7388788833
 21
3882.254036091723
 31
0.0
  0
LINE
  5
1C1
330
1F
100
AcDbEntity
  8
0
  6
Continuous
100
AcDbLine
 10
11849.59795243607
 20
3328.867017243521
 30
0.0
 11
11799.23511409073
 21
3299.721748463979
 31
0.0
  0
LINE
  5
1C2
330
1F
100
AcDbEntity
  8
0
  6
Continuous
100
AcDbLine
 10
11886.89267228285
 20
3287.605440490339
 30
0.0
 11
11886.89267228285
 21
3319.027564995953
 31
0.0
  0
LINE
  5
1C3
330
1F
100
AcDbEntity
  8
0
  6
Continuous
100
AcDbLine
 10
11836.52983393751
 20
3289.882296216409
 30
0.0
 11
11912.07409145553
 21
3333.600199385726
 31
0.0
  0
LINE
  5
1C4
330
1F
100
AcDbEntity
  8
0
  6
Continuous
100
AcDbLine
 10
11886.89267228285
 20
3319.027564995953
 30
0.0
 11
11799.23511409072
 21
3299.721748463979
 31
0.0
  0
LINE
  5
1C5
330
1F
100
AcDbEntity
  8
0
  6
Continuous
100
AcDbLine
 10
11873.8245537843
 20
2842.009968452589
 30
0.0
 11
11836.52983393751
 21
2820.427296194546
 31
0.0
  0
LINE
  5
1C6
330
1F
100
AcDbEntity
  8
0
  6
Continuous
100
AcDbLine
 10
11886.89267228285
 20
3319.027564995953
 30
0.0
 11
11886.89267228285
 21
3287.605440490337
 31
0.0
  0
LINE
  5
1C7
330
1F
100
AcDbEntity
  8
0
  6
Continuous
100
AcDbLine
 10
11836.52983393751
 20
3289.882296216409
 30
0.0
 11
11849.59795243607
 21
3328.867017243523
 31
0.0
  0
LINE
  5
1C8
330
1F
100
AcDbEntity
  8
0
  6
Continuous
100
AcDbLine
 10
11849.59795243607
 20
3328.867017243523
 30
0.0
 11
11799.23511409072
 21
3299.721748463979
 31
0.0
  0
LINE
  5
1C9
330
1F
100
AcDbEntity
  8
0
  6
Continuous
100
AcDbLine
 10
11799.23511409072
 20
3299.721748463979
 30
0.0
 11
11836.52983393751
 21
3289.882296216409
 31
0.0
  0
LINE
  5
1CA
330
1F
100
AcDbEntity
  8
0
  6
Continuous
100
AcDbLine
 10
11836.52983393751
 20
3289.882296216409
 30
0.0
 11
11836.52983393751
 21
2820.427296194546
 31
0.0
  0
LINE
  5
1CB
330
1F
100
AcDbEntity
  8
0
  6
Continuous
100
AcDbLine
 10
11799.23511409073
 20
2830.266748442118
 30
0.0
 11
11799.23511409072
 21
3299.721748463979
 31
0.0
  0
LINE
  5
1CC
330
1F
100
AcDbEntity
  8
0
  6
Continuous
100
AcDbLine
 10
11873.8245537843
 20
3280.042843968838
 30
0.0
 11
11911.11927363108
 21
3270.203391721268
 31
0.0
  0
LINE
  5
1CD
330
1F
100
AcDbEntity
  8
0
  6
Continuous
100
AcDbLine
 10
11924.18739212964
 20
3309.188112748382
 30
0.0
 11
11873.8245537843
 21
3280.042843968838
 31
0.0
  0
LINE
  5
1CE
330
1F
100
AcDbEntity
  8
0
  6
Continuous
100
AcDbLine
 10
11873.8245537843
 20
3280.042843968838
 30
0.0
 11
11961.48211197643
 21
3299.348660500812
 31
0.0
  0
LINE
  5
1CF
330
1F
100
AcDbEntity
  8
0
  6
Continuous
100
AcDbLine
 10
11873.8245537843
 20
3280.042843968838
 30
0.0
 11
11873.8245537843
 21
2810.587843946977
 31
0.0
  0
LINE
  5
1D0
330
1F
100
AcDbEntity
  8
0
  6
Continuous
100
AcDbLine
 10
11924.18739212964
 20
3309.188112748382
 30
0.0
 11
11911.11927363108
 21
3270.203391721268
 31
0.0
  0
LINE
  5
1D1
330
1F
100
AcDbEntity
  8
0
  6
Continuous
100
AcDbLine
 10
11961.48211197643
 20
3299.348660500812
 30
0.0
 11
11849.59795243607
 21
3328.867017243521
 31
0.0
  0
LINE
  5
1D2
330
1F
100
AcDbEntity
  8
0
  6
Continuous
100
AcDbLine
 10
11911.11927363108
 20
2800.748391699407
 30
0.0
 11
11911.11927363108
 21
3270.203391721268
 31
0.0
  0
LINE
  5
1D3
330
1F
100
AcDbEntity
  8
0
  6
Continuous
100
AcDbLine
 10
11961.48211197642
 20
2829.893660478953
 30
0.0
 11
11961.48211197643
 21
3299.348660500812
 31
0.0
  0
LINE
  5
1D4
330
1F
100
AcDbEntity
  8
0
  6
Continuous
100
AcDbLine
 10
10621.16570623285
 20
2819.430457232627
 30
0.0
 11
10497.32303230557
 21
2864.137853616926
 31
0.0
  0
LINE
  5
1D5
330
1F
100
AcDbEntity
  8
0
  6
Continuous
100
AcDbLine
 10
10497.32303230557
 20
2864.137853616926
 30
0.0
 11
10494.43374429774
 21
2828.220244626027
 31
0.0
  0
LINE
  5
1D6
330
1F
100
AcDbEntity
  8
0
  6
Continuous
100
AcDbLine
 10
10494.43374429774
 20
2828.220244626027
 30
0.0
 11
10618.27641822502
 21
2783.512848241729
 31
0.0
  0
LINE
  5
1D7
330
1F
100
AcDbEntity
  8
0
  6
Continuous
100
AcDbLine
 10
10618.27641822502
 20
2783.512848241729
 30
0.0
 11
10621.16570623285
 21
2819.430457232627
 31
0.0
  0
LINE
  5
1D8
330
1F
100
AcDbEntity
  8
0
  6
Continuous
100
AcDbLine
 10
10631.23827390192
 20
2825.259510988536
 30
0.0
 11
10628.34898589409
 21
2789.341901997637
 31
0.0
  0
LINE
  5
1D9
330
1F
100
AcDbEntity
  8
0
  6
Continuous
100
AcDbLine
 10
10507.39559997464
 20
2869.966907372836
 30
0.0
 11
10631.23827390192
 21
2825.259510988536
 31
0.0
  0
LINE
  5
1DA
330
1F
100
AcDbEntity
  8
0
  6
Continuous
100
AcDbLine
 10
10621.16570623285
 20
2819.430457232627
 30
0.0
 11
10631.23827390192
 21
2825.259510988536
 31
0.0
  0
LINE
  5
1DB
330
1F
100
AcDbEntity
  8
0
  6
Continuous
100
AcDbLine
 10
10507.39559997464
 20
2869.966907372836
 30
0.0
 11
10497.32303230557
 21
2864.137853616926
 31
0.0
  0
LINE
  5
1DC
330
1F
100
AcDbEntity
  8
0
  6
Continuous
100
AcDbLine
 10
10628.34898589409
 20
2789.341901997637
 30
0.0
 11
10618.27641822502
 21
2783.512848241729
 31
0.0
  0
LINE
  5
1DD
330
1F
100
AcDbEntity
  8
0
  6
Continuous
100
AcDbLine
 10
10621.16570623285
 20
656.2554571318975
 30
0.0
 11
10497.32303230556
 21
700.9628535161951
 31
0.0
  0
LINE
  5
1DE
330
1F
100
AcDbEntity
  8
0
  6
Continuous
100
AcDbLine
 10
10497.32303230556
 20
700.9628535161951
 30
0.0
 11
10494.43374429773
 21
665.0452445252993
 31
0.0
  0
LINE
  5
1DF
330
1F
100
AcDbEntity
  8
0
  6
Continuous
100
AcDbLine
 10
10494.43374429773
 20
665.0452445252993
 30
0.0
 11
10618.27641822501
 21
620.3378481409998
 31
0.0
  0
LINE
  5
1E0
330
1F
100
AcDbEntity
  8
0
  6
Continuous
100
AcDbLine
 10
10618.27641822501
 20
620.3378481409998
 30
0.0
 11
10621.16570623285
 21
656.2554571318975
 31
0.0
  0
LINE
  5
1E1
330
1F
100
AcDbEntity
  8
0
  6
Continuous
100
AcDbLine
 10
10631.23827390191
 20
662.0845108878051
 30
0.0
 11
10628.34898589408
 21
626.1669018969092
 31
0.0
  0
LINE
  5
1E2
330
1F
100
AcDbEntity
  8
0
  6
Continuous
100
AcDbLine
 10
10507.39559997463
 20
706.7919072721049
 30
0.0
 11
10631.23827390191
 21
662.0845108878051
 31
0.0
  0
LINE
  5
1E3
330
1F
100
AcDbEntity
  8
0
  6
Continuous
100
AcDbLine
 10
10621.16570623285
 20
656.2554571318975
 30
0.0
 11
10631.23827390191
 21
662.0845108878051
 31
0.0
  0
LINE
  5
1E4
330
1F
100
AcDbEntity
  8
0
  6
Continuous
100
AcDbLine
 10
10507.39559997463
 20
706.7919072721049
 30
0.0
 11
10497.32303230556
 21
700.9628535161951
 31
0.0
  0
LINE
  5
1E5
330
1F
100
AcDbEntity
  8
0
  6
Continuous
100
AcDbLine
 10
10628.34898589408
 20
626.1669018969092
 30
0.0
 11
10618.27641822501
 21
620.3378481409998
 31
0.0
  0
LINE
  5
1E6
330
1F
100
AcDbEntity
  8
0
  6
Continuous
100
AcDbLine
 10
11118.42863752332
 20
2688.237760598352
 30
0.0
 11
10994.58596359604
 21
2732.945156982651
 31
0.0
  0
LINE
  5
1E7
330
1F
100
AcDbEntity
  8
0
  6
Continuous
100
AcDbLine
 10
10994.58596359604
 20
2732.945156982651
 30
0.0
 11
10991.69667558821
 21
2697.027547991751
 31
0.0
  0
LINE
  5
1E8
330
1F
100
AcDbEntity
  8
0
  6
Continuous
100
AcDbLine
 10
10991.69667558821
 20
2697.027547991751
 30
0.0
 11
11115.53934951549
 21
2652.320151607454
 31
0.0
  0
LINE
  5
1E9
330
1F
100
AcDbEntity
  8
0
  6
Continuous
100
AcDbLine
 10
11115.53934951549
 20
2652.320151607454
 30
0.0
 11
11118.42863752332
 21
2688.237760598352
 31
0.0
  0
LINE
  5
1EA
330
1F
100
AcDbEntity
  8
0
  6
Continuous
100
AcDbLine
 10
11128.50120519239
 20
2694.066814354261
 30
0.0
 11
11125.61191718456
 21
2658.149205363361
 31
0.0
  0
LINE
  5
1EB
330
1F
100
AcDbEntity
  8
0
  6
Continuous
100
AcDbLine
 10
11004.65853126511
 20
2738.774210738561
 30
0.0
 11
11128.50120519239
 21
2694.066814354261
 31
0.0
  0
LINE
  5
1EC
330
1F
100
AcDbEntity
  8
0
  6
Continuous
100
AcDbLine
 10
11118.42863752332
 20
2688.237760598352
 30
0.0
 11
11128.50120519239
 21
2694.066814354261
 31
0.0
  0
LINE
  5
1ED
330
1F
100
AcDbEntity
  8
0
  6
Continuous
100
AcDbLine
 10
11004.65853126511
 20
2738.774210738561
 30
0.0
 11
10994.58596359604
 21
2732.945156982651
 31
0.0
  0
LINE
  5
1EE
330
1F
100
AcDbEntity
  8
0
  6
Continuous
100
AcDbLine
 10
11125.61191718456
 20
2658.149205363361
 30
0.0
 11
11115.53934951549
 21
2652.320151607454
 31
0.0
  0
LINE
  5
1EF
330
1F
100
AcDbEntity
  8
0
  6
Continuous
100
AcDbLine
 10
11118.42863752332
 20
525.0627604976219
 30
0.0
 11
10994.58596359604
 21
569.7701568819195
 31
0.0
  0
LINE
  5
1F0
330
1F
100
AcDbEntity
  8
0
  6
Continuous
100
AcDbLine
 10
10994.58596359604
 20
569.7701568819195
 30
0.0
 11
10991.6966755882
 21
533.8525478910236
 31
0.0
  0
LINE
  5
1F1
330
1F
100
AcDbEntity
  8
0
  6
Continuous
100
AcDbLine
 10
10991.6966755882
 20
533.8525478910236
 30
0.0
 11
11115.53934951549
 21
489.1451515067242
 31
0.0
  0
LINE
  5
1F2
330
1F
100
AcDbEntity
  8
0
  6
Continuous
100
AcDbLine
 10
11115.53934951549
 20
489.1451515067242
 30
0.0
 11
11118.42863752332
 21
525.0627604976219
 31
0.0
  0
LINE
  5
1F3
330
1F
100
AcDbEntity
  8
0
  6
Continuous
100
AcDbLine
 10
11128.50120519239
 20
530.8918142535299
 30
0.0
 11
11125.61191718455
 21
494.974205262634
 31
0.0
  0
LINE
  5
1F4
330
1F
100
AcDbEntity
  8
0
  6
Continuous
100
AcDbLine
 10
11004.6585312651
 20
575.5992106378294
 30
0.0
 11
11128.50120519239
 21
530.8918142535299
 31
0.0
  0
LINE
  5
1F5
330
1F
100
AcDbEntity
  8
0
  6
Continuous
100
AcDbLine
 10
11118.42863752332
 20
525.0627604976219
 30
0.0
 11
11128.50120519239
 21
530.8918142535299
 31
0.0
  0
LINE
  5
1F6
330
1F
100
AcDbEntity
  8
0
  6
Continuous
100
AcDbLine
 10
11004.6585312651
 20
575.5992106378294
 30
0.0
 11
10994.58596359604
 21
569.7701568819195
 31
0.0
  0
LINE
  5
1F7
330
1F
100
AcDbEntity
  8
0
  6
Continuous
100
AcDbLine
 10
11125.61191718455
 20
494.974205262634
 30
0.0
 11
11115.53934951549
 21
489.1451515067242
 31
0.0
  0
LINE
  5
1F8
330
1F
100
AcDbEntity
  8
0
  6
Continuous
100
AcDbLine
 10
11615.69156881379
 20
2557.04506396408
 30
0.0
 11
11491.84889488651
 21
2601.752460348379
 31
0.0
  0
LINE
  5
1F9
330
1F
100
AcDbEntity
  8
0
  6
Continuous
100
AcDbLine
 10
11491.84889488651
 20
2601.752460348379
 30
0.0
 11
11488.95960687868
 21
2565.83485135748
 31
0.0
  0
LINE
  5
1FA
330
1F
100
AcDbEntity
  8
0
  6
Continuous
100
AcDbLine
 10
11488.95960687868
 20
2565.83485135748
 30
0.0
 11
11612.80228080596
 21
2521.127454973182
 31
0.0
  0
LINE
  5
1FB
330
1F
100
AcDbEntity
  8
0
  6
Continuous
100
AcDbLine
 10
11612.80228080596
 20
2521.127454973182
 30
0.0
 11
11615.69156881379
 21
2557.04506396408
 31
0.0
  0
LINE
  5
1FC
330
1F
100
AcDbEntity
  8
0
  6
Continuous
100
AcDbLine
 10
11625.76413648286
 20
2562.874117719989
 30
0.0
 11
11622.87484847503
 21
2526.95650872909
 31
0.0
  0
LINE
  5
1FD
330
1F
100
AcDbEntity
  8
0
  6
Continuous
100
AcDbLine
 10
11501.92146255558
 20
2607.581514104289
 30
0.0
 11
11625.76413648286
 21
2562.874117719989
 31
0.0
  0
LINE
  5
1FE
330
1F
100
AcDbEntity
  8
0
  6
Continuous
100
AcDbLine
 10
11615.69156881379
 20
2557.04506396408
 30
0.0
 11
11625.76413648286
 21
2562.874117719989
 31
0.0
  0
LINE
  5
1FF
330
1F
100
AcDbEntity
  8
0
  6
Continuous
100
AcDbLine
 10
11501.92146255558
 20
2607.581514104289
 30
0.0
 11
11491.84889488651
 21
2601.752460348379
 31
0.0
  0
LINE
  5
200
330
1F
100
AcDbEntity
  8
0
  6
Continuous
100
AcDbLine
 10
11622.87484847503
 20
2526.95650872909
 30
0.0
 11
11612.80228080596
 21
2521.127454973182
 31
0.0
  0
LINE
  5
201
330
1F
100
AcDbEntity
  8
0
  6
Continuous
100
AcDbLine
 10
11615.69156881379
 20
393.8700638633503
 30
0.0
 11
11491.84889488651
 21
438.577460247648
 31
0.0
  0
LINE
  5
202
330
1F
100
AcDbEntity
  8
0
  6
Continuous
100
AcDbLine
 10
11491.84889488651
 20
438.577460247648
 30
0.0
 11
11488.95960687867
 21
402.6598512567521
 31
0.0
  0
LINE
  5
203
330
1F
100
AcDbEntity
  8
0
  6
Continuous
100
AcDbLine
 10
11488.95960687867
 20
402.6598512567521
 30
0.0
 11
11612.80228080595
 21
357.9524548724526
 31
0.0
  0
LINE
  5
204
330
1F
100
AcDbEntity
  8
0
  6
Continuous
100
AcDbLine
 10
11612.80228080595
 20
357.9524548724526
 30
0.0
 11
11615.69156881379
 21
393.8700638633503
 31
0.0
  0
LINE
  5
205
330
1F
100
AcDbEntity
  8
0
  6
Continuous
100
AcDbLine
 10
11625.76413648286
 20
399.6991176192583
 30
0.0
 11
11622.87484847502
 21
363.781508628362
 31
0.0
  0
LINE
  5
206
330
1F
100
AcDbEntity
  8
0
  6
Continuous
100
AcDbLine
 10
11501.92146255558
 20
444.4065140035578
 30
0.0
 11
11625.76413648286
 21
399.6991176192583
 31
0.0
  0
LINE
  5
207
330
1F
100
AcDbEntity
  8
0
  6
Continuous
100
AcDbLine
 10
11615.69156881379
 20
393.8700638633503
 30
0.0
 11
11625.76413648286
 21
399.6991176192583
 31
0.0
  0
LINE
  5
208
330
1F
100
AcDbEntity
  8
0
  6
Continuous
100
AcDbLine
 10
11501.92146255558
 20
444.4065140035578
 30
0.0
 11
11491.84889488651
 21
438.577460247648
 31
0.0
  0
LINE
  5
209
330
1F
100
AcDbEntity
  8
0
  6
Continuous
100
AcDbLine
 10
11622.87484847502
 20
363.781508628362
 30
0.0
 11
11612.80228080595
 21
357.9524548724526
 31
0.0
  0
LINE
  5
20A
330
1F
100
AcDbEntity
  8
0
  6
Continuous
100
AcDbLine
 10
12210.46561280741
 20
2646.66601995155
 30
0.0
 11
12126.84695857328
 21
2610.309445410925
 31
0.0
  0
LINE
  5
20B
330
1F
100
AcDbEntity
  8
0
  6
Continuous
100
AcDbLine
 10
12126.84695857328
 20
2610.309445410925
 30
0.0
 11
12124.89610942534
 21
2572.500588826338
 31
0.0
  0
LINE
  5
20C
330
1F
100
AcDbEntity
  8
0
  6
Continuous
100
AcDbLine
 10
12124.89610942534
 20
2572.500588826338
 30
0.0
 11
12208.51476365947
 21
2608.857163366963
 31
0.0
  0
LINE
  5
20D
330
1F
100
AcDbEntity
  8
0
  6
Continuous
100
AcDbLine
 10
12208.51476365947
 20
2608.857163366963
 30
0.0
 11
12210.46561280741
 21
2646.66601995155
 31
0.0
  0
LINE
  5
20E
330
1F
100
AcDbEntity
  8
0
  6
Continuous
100
AcDbLine
 10
12109.97822148662
 20
2576.436369725366
 30
0.0
 11
12111.92907063456
 21
2614.245226309953
 31
0.0
  0
LINE
  5
20F
330
1F
100
AcDbEntity
  8
0
  6
Continuous
100
AcDbLine
 10
12111.92907063456
 20
2614.245226309953
 30
0.0
 11
12195.5477248687
 21
2650.601800850578
 31
0.0
  0
LINE
  5
210
330
1F
100
AcDbEntity
  8
0
  6
Continuous
100
AcDbLine
 10
12210.46561280741
 20
2646.66601995155
 30
0.0
 11
12195.5477248687
 21
2650.601800850578
 31
0.0
  0
LINE
  5
211
330
1F
100
AcDbEntity
  8
0
  6
Continuous
100
AcDbLine
 10
12111.92907063456
 20
2614.245226309953
 30
0.0
 11
12126.84695857328
 21
2610.309445410925
 31
0.0
  0
LINE
  5
212
330
1F
100
AcDbEntity
  8
0
  6
Continuous
100
AcDbLine
 10
12109.97822148662
 20
2576.436369725366
 30
0.0
 11
12124.89610942534
 21
2572.500588826338
 31
0.0
  0
LINE
  5
213
330
1F
100
AcDbEntity
  8
0
  6
Continuous
100
AcDbLine
 10
12209.67313707794
 20
483.1464591401233
 30
0.0
 11
12126.84695857327
 21
447.1344453101897
 31
0.0
  0
LINE
  5
214
330
1F
100
AcDbEntity
  8
0
  6
Continuous
100
AcDbLine
 10
12126.84695857327
 20
447.1344453101897
 30
0.0
 11
12124.89610942533
 21
409.3255887256051
 31
0.0
  0
LINE
  5
215
330
1F
100
AcDbEntity
  8
0
  6
Continuous
100
AcDbLine
 10
12124.89610942533
 20
409.3255887256051
 30
0.0
 11
12208.51476365947
 21
445.6821632662318
 31
0.0
  0
LINE
  5
216
330
1F
100
AcDbEntity
  8
0
  6
Continuous
100
AcDbLine
 10
12208.51476365947
 20
445.6821632662318
 30
0.0
 11
12210.24215299094
 21
479.1602082336444
 31
0.0
  0
LINE
  5
217
330
1F
100
AcDbEntity
  8
0
  6
Continuous
100
AcDbLine
 10
12109.97822148662
 20
413.261369624633
 30
0.0
 11
12111.92907063456
 21
451.0702262092177
 31
0.0
  0
LINE
  5
218
330
1F
100
AcDbEntity
  8
0
  6
Continuous
100
AcDbLine
 10
12111.92907063456
 20
451.0702262092177
 30
0.0
 11
12195.5477248687
 21
487.4268007498426
 31
0.0
  0
LINE
  5
219
330
1F
100
AcDbEntity
  8
0
  6
Continuous
100
AcDbLine
 10
12209.75468916983
 20
483.6785825731637
 30
0.0
 11
12195.5477248687
 21
487.4268007498426
 31
0.0
  0
LINE
  5
21A
330
1F
100
AcDbEntity
  8
0
  6
Continuous
100
AcDbLine
 10
12111.92907063456
 20
451.0702262092177
 30
0.0
 11
12126.84695857327
 21
447.1344453101897
 31
0.0
  0
LINE
  5
21B
330
1F
100
AcDbEntity
  8
0
  6
Continuous
100
AcDbLine
 10
12109.97822148662
 20
413.261369624633
 30
0.0
 11
12124.89610942533
 21
409.3255887256051
 31
0.0
  0
LINE
  5
21C
330
1F
100
AcDbEntity
  8
0
  6
Continuous
100
AcDbLine
 10
12546.21786844304
 20
2840.967811815182
 30
0.0
 11
12462.5992142089
 21
2804.611237274557
 31
0.0
  0
LINE
  5
21D
330
1F
100
AcDbEntity
  8
0
  6
Continuous
100
AcDbLine
 10
12462.5992142089
 20
2804.611237274557
 30
0.0
 11
12460.64836506096
 21
2766.802380689972
 31
0.0
  0
LINE
  5
21E
330
1F
100
AcDbEntity
  8
0
  6
Continuous
100
AcDbLine
 10
12460.64836506096
 20
2766.802380689972
 30
0.0
 11
12544.2670192951
 21
2803.158955230597
 31
0.0
  0
LINE
  5
21F
330
1F
100
AcDbEntity
  8
0
  6
Continuous
100
AcDbLine
 10
12544.2670192951
 20
2803.158955230597
 30
0.0
 11
12546.21786844304
 21
2840.967811815182
 31
0.0
  0
LINE
  5
220
330
1F
100
AcDbEntity
  8
0
  6
Continuous
100
AcDbLine
 10
12445.73047712225
 20
2770.738161589
 30
0.0
 11
12447.68132627019
 21
2808.547018173587
 31
0.0
  0
LINE
  5
221
330
1F
100
AcDbEntity
  8
0
  6
Continuous
100
AcDbLine
 10
12447.68132627019
 20
2808.547018173587
 30
0.0
 11
12531.29998050433
 21
2844.903592714212
 31
0.0
  0
LINE
  5
222
330
1F
100
AcDbEntity
  8
0
  6
Continuous
100
AcDbLine
 10
12546.21786844304
 20
2840.967811815182
 30
0.0
 11
12531.29998050433
 21
2844.903592714212
 31
0.0
  0
LINE
  5
223
330
1F
100
AcDbEntity
  8
0
  6
Continuous
100
AcDbLine
 10
12447.68132627019
 20
2808.547018173587
 30
0.0
 11
12462.5992142089
 21
2804.611237274557
 31
0.0
  0
LINE
  5
224
330
1F
100
AcDbEntity
  8
0
  6
Continuous
100
AcDbLine
 10
12445.73047712225
 20
2770.738161589
 30
0.0
 11
12460.64836506096
 21
2766.802380689972
 31
0.0
  0
LINE
  5
225
330
1F
100
AcDbEntity
  8
0
  6
Continuous
100
AcDbLine
 10
12881.97012407866
 20
3035.269603678817
 30
0.0
 11
12798.35146984453
 21
2998.913029138192
 31
0.0
  0
LINE
  5
226
330
1F
100
AcDbEntity
  8
0
  6
Continuous
100
AcDbLine
 10
12798.35146984453
 20
2998.913029138192
 30
0.0
 11
12796.40062069658
 21
2961.104172553607
 31
0.0
  0
LINE
  5
227
330
1F
100
AcDbEntity
  8
0
  6
Continuous
100
AcDbLine
 10
12796.40062069658
 20
2961.104172553607
 30
0.0
 11
12880.01927493072
 21
2997.460747094232
 31
0.0
  0
LINE
  5
228
330
1F
100
AcDbEntity
  8
0
  6
Continuous
100
AcDbLine
 10
12880.01927493072
 20
2997.460747094232
 30
0.0
 11
12881.97012407866
 21
3035.269603678817
 31
0.0
  0
LINE
  5
229
330
1F
100
AcDbEntity
  8
0
  6
Continuous
100
AcDbLine
 10
12781.48273275787
 20
2965.039953452635
 30
0.0
 11
12783.43358190581
 21
3002.848810037222
 31
0.0
  0
LINE
  5
22A
330
1F
100
AcDbEntity
  8
0
  6
Continuous
100
AcDbLine
 10
12783.43358190581
 20
3002.848810037222
 30
0.0
 11
12867.05223613995
 21
3039.205384577847
 31
0.0
  0
LINE
  5
22B
330
1F
100
AcDbEntity
  8
0
  6
Continuous
100
AcDbLine
 10
12881.97012407866
 20
3035.269603678817
 30
0.0
 11
12867.05223613995
 21
3039.205384577847
 31
0.0
  0
LINE
  5
22C
330
1F
100
AcDbEntity
  8
0
  6
Continuous
100
AcDbLine
 10
12783.43358190581
 20
3002.848810037222
 30
0.0
 11
12798.35146984453
 21
2998.913029138192
 31
0.0
  0
LINE
  5
22D
330
1F
100
AcDbEntity
  8
0
  6
Continuous
100
AcDbLine
 10
12781.48273275787
 20
2965.039953452635
 30
0.0
 11
12796.40062069658
 21
2961.104172553607
 31
0.0
  0
LINE
  5
22E
330
1F
100
AcDbEntity
  8
0
  6
Continuous
100
AcDbLine
 10
13217.72237971429
 20
3229.571395542456
 30
0.0
 11
13134.10372548015
 21
3193.214821001833
 31
0.0
  0
LINE
  5
22F
330
1F
100
AcDbEntity
  8
0
  6
Continuous
100
AcDbLine
 10
13134.10372548015
 20
3193.214821001833
 30
0.0
 11
13132.15287633221
 21
3155.405964417246
 31
0.0
  0
LINE
  5
230
330
1F
100
AcDbEntity
  8
0
  6
Continuous
100
AcDbLine
 10
13132.15287633221
 20
3155.405964417246
 30
0.0
 11
13215.77153056634
 21
3191.762538957869
 31
0.0
  0
LINE
  5
231
330
1F
100
AcDbEntity
  8
0
  6
Continuous
100
AcDbLine
 10
13215.77153056634
 20
3191.762538957869
 30
0.0
 11
13217.72237971429
 21
3229.571395542456
 31
0.0
  0
LINE
  5
232
330
1F
100
AcDbEntity
  8
0
  6
Continuous
100
AcDbLine
 10
13117.23498839349
 20
3159.341745316273
 30
0.0
 11
13119.18583754143
 21
3197.150601900859
 31
0.0
  0
LINE
  5
233
330
1F
100
AcDbEntity
  8
0
  6
Continuous
100
AcDbLine
 10
13119.18583754143
 20
3197.150601900859
 30
0.0
 11
13202.80449177557
 21
3233.507176441484
 31
0.0
  0
LINE
  5
234
330
1F
100
AcDbEntity
  8
0
  6
Continuous
100
AcDbLine
 10
13217.72237971429
 20
3229.571395542456
 30
0.0
 11
13202.80449177557
 21
3233.507176441484
 31
0.0
  0
LINE
  5
235
330
1F
100
AcDbEntity
  8
0
  6
Continuous
100
AcDbLine
 10
13119.18583754143
 20
3197.150601900859
 30
0.0
 11
13134.10372548015
 21
3193.214821001833
 31
0.0
  0
LINE
  5
236
330
1F
100
AcDbEntity
  8
0
  6
Continuous
100
AcDbLine
 10
13117.23498839349
 20
3159.341745316273
 30
0.0
 11
13132.15287633221
 21
3155.405964417246
 31
0.0
  0
LINE
  5
237
330
1F
100
AcDbEntity
  8
0
  6
Continuous
100
AcDbLine
 10
13217.72237971428
 20
1066.396395441723
 30
0.0
 11
13134.10372548014
 21
1030.039820901096
 31
0.0
  0
LINE
  5
238
330
1F
100
AcDbEntity
  8
0
  6
Continuous
100
AcDbLine
 10
13134.10372548014
 20
1030.039820901096
 30
0.0
 11
13132.1528763322
 21
992.230964316513
 31
0.0
  0
LINE
  5
239
330
1F
100
AcDbEntity
  8
0
  6
Continuous
100
AcDbLine
 10
13132.1528763322
 20
992.230964316513
 30
0.0
 11
13215.77153056634
 21
1028.587538857138
 31
0.0
  0
LINE
  5
23A
330
1F
100
AcDbEntity
  8
0
  6
Continuous
100
AcDbLine
 10
13215.77153056634
 20
1028.587538857138
 30
0.0
 11
13217.72237971428
 21
1066.396395441723
 31
0.0
  0
LINE
  5
23B
330
1F
100
AcDbEntity
  8
0
  6
Continuous
100
AcDbLine
 10
13117.23498839349
 20
996.1667452155409
 30
0.0
 11
13119.18583754143
 21
1033.975601800126
 31
0.0
  0
LINE
  5
23C
330
1F
100
AcDbEntity
  8
0
  6
Continuous
100
AcDbLine
 10
13119.18583754143
 20
1033.975601800126
 30
0.0
 11
13202.80449177557
 21
1070.332176340753
 31
0.0
  0
LINE
  5
23D
330
1F
100
AcDbEntity
  8
0
  6
Continuous
100
AcDbLine
 10
13217.72237971428
 20
1066.396395441723
 30
0.0
 11
13202.80449177557
 21
1070.332176340753
 31
0.0
  0
LINE
  5
23E
330
1F
100
AcDbEntity
  8
0
  6
Continuous
100
AcDbLine
 10
13119.18583754143
 20
1033.975601800126
 30
0.0
 11
13134.10372548014
 21
1030.039820901096
 31
0.0
  0
LINE
  5
23F
330
1F
100
AcDbEntity
  8
0
  6
Continuous
100
AcDbLine
 10
13117.23498839349
 20
996.1667452155409
 30
0.0
 11
13132.1528763322
 21
992.230964316513
 31
0.0
  0
LINE
  5
240
330
1F
100
AcDbEntity
  8
0
  6
Continuous
100
AcDbLine
 10
13304.49113451892
 20
3607.1008279335
 30
0.0
 11
13229.90169482535
 21
3626.77973242864
 31
0.0
  0
LINE
  5
241
330
1F
100
AcDbEntity
  8
0
  6
Continuous
100
AcDbLine
 10
13304.49113451892
 20
4076.555827955361
 30
0.0
 11
13329.67255369159
 21
4091.128462345135
 31
0.0
  0
LINE
  5
242
330
1F
100
AcDbEntity
  8
0
  6
Continuous
100
AcDbLine
 10
13229.90169482535
 20
4096.234732450504
 30
0.0
 11
13304.49113451892
 21
4076.555827955361
 31
0.0
  0
LINE
  5
243
330
1F
100
AcDbEntity
  8
0
  6
Continuous
100
AcDbLine
 10
13304.49113451892
 20
4076.555827955361
 30
0.0
 11
13255.08311399802
 21
4110.807366840274
 31
0.0
  0
LINE
  5
244
330
1F
100
AcDbEntity
  8
0
  6
Continuous
100
AcDbLine
 10
13304.49113451892
 20
3607.100827933498
 30
0.0
 11
13229.90169482535
 21
3626.779732428638
 31
0.0
  0
LINE
  5
245
330
1F
100
AcDbEntity
  8
0
  6
Continuous
100
AcDbLine
 10
13304.49113451892
 20
4076.555827955361
 30
0.0
 11
13304.49113451892
 21
3607.1008279335
 31
0.0
  0
LINE
  5
246
330
1F
100
AcDbEntity
  8
0
  6
Continuous
100
AcDbLine
 10
13229.90169482535
 20
4096.234732450504
 30
0.0
 11
13329.67255369159
 21
4091.128462345135
 31
0.0
  0
LINE
  5
247
330
1F
100
AcDbEntity
  8
0
  6
Continuous
100
AcDbLine
 10
13329.67255369159
 20
4091.128462345135
 30
0.0
 11
13255.08311399802
 21
4110.807366840274
 31
0.0
  0
LINE
  5
248
330
1F
100
AcDbEntity
  8
0
  6
Continuous
100
AcDbLine
 10
13255.08311399802
 20
4110.807366840274
 30
0.0
 11
13229.90169482535
 21
4096.234732450504
 31
0.0
  0
LINE
  5
249
330
1F
100
AcDbEntity
  8
0
  6
Continuous
100
AcDbLine
 10
13229.90169482535
 20
4096.234732450504
 30
0.0
 11
13229.90169482535
 21
3626.77973242864
 31
0.0
  0
LINE
  5
24A
330
1F
100
AcDbEntity
  8
0
  6
Continuous
100
AcDbLine
 10
13329.67255369159
 20
3621.673462323273
 30
0.0
 11
13329.67255369159
 21
4091.128462345135
 31
0.0
  0
LINE
  5
24B
330
1F
100
AcDbEntity
  8
0
  6
Continuous
100
AcDbLine
 10
13329.67255369159
 20
1153.381962209127
 30
0.0
 11
13324.28221270213
 21
1150.262540387144
 31
0.0
  0
LINE
  5
24C
330
1F
100
AcDbEntity
  8
0
  6
Continuous
100
AcDbLine
 10
13329.67255369159
 20
3279.73696230812
 30
0.0
 11
13329.67255369159
 21
1153.381962209127
 31
0.0
  0
LINE
  5
24D
330
1F
100
AcDbEntity
  8
0
  6
Continuous
100
AcDbLine
 10
13329.67255369159
 20
1153.381962209127
 30
0.0
 11
13324.28221270213
 21
1150.262540387144
 31
0.0
  0
LINE
  5
24E
330
1F
100
AcDbEntity
  8
0
  6
Continuous
100
AcDbLine
 10
13329.67255369159
 20
3279.736962308141
 30
0.0
 11
13329.67255369159
 21
1153.381962209127
 31
0.0
  0
LINE
  5
24F
330
1F
100
AcDbEntity
  8
0
  6
Continuous
100
AcDbLine
 10
13329.67255369159
 20
1153.381962209127
 30
0.0
 11
13324.28221270213
 21
1150.262540387144
 31
0.0
  0
LINE
  5
250
330
1F
100
AcDbEntity
  8
0
  6
Continuous
100
AcDbLine
 10
13329.67255369159
 20
3279.736962308141
 30
0.0
 11
13329.67255369159
 21
1153.381962209127
 31
0.0
  0
LINE
  5
252
330
1F
100
AcDbEntity
  8
0
  6
Dash Short
100
AcDbLine
 10
9897.840947120972
 20
906.0518513970361
 30
0.0
 11
9847.478108775627
 21
876.9065826174898
 31
0.0
  0
LINE
  5
253
330
1F
100
AcDbEntity
  8
0
  6
Dash Short
100
AcDbLine
 10
9847.478108775627
 20
876.9065826174898
 30
0.0
 11
9810.183388928841
 21
886.7460348650579
 31
0.0
  0
LINE
  5
254
330
1F
100
AcDbEntity
  8
0
  6
Dash Short
100
AcDbLine
 10
9897.840947120972
 20
2989.974373562317
 30
0.0
 11
9897.840947120972
 21
1988.140601464639
 31
0.0
  0
LINE
  5
255
330
1F
100
AcDbEntity
  8
0
  6
Dash Short
100
AcDbLine
 10
9897.840947120972
 20
1904.285623528973
 30
0.0
 11
9897.840947120972
 21
906.0518513970361
 31
0.0
  0
LINE
  5
256
330
1F
100
AcDbEntity
  8
0
  6
Continuous
100
AcDbLine
 10
9810.183388928843
 20
3013.101034964076
 30
0.0
 11
9810.18338892884
 21
886.7460348650579
 31
0.0
  0
LINE
  5
257
330
1F
100
AcDbEntity
  8
0
  6
Dash Short
100
AcDbLine
 10
9897.840947120969
 20
906.0518513970361
 30
0.0
 11
9897.84094712097
 21
1904.285623528973
 31
0.0
  0
LINE
  5
258
330
1F
100
AcDbEntity
  8
0
  6
Dash Short
100
AcDbLine
 10
9897.840947120972
 20
1988.140601464639
 30
0.0
 11
9897.840947120972
 21
2989.974373562317
 31
0.0
  0
LINE
  5
259
330
1F
100
AcDbEntity
  8
0
  6
Dash Short
100
AcDbLine
 10
9897.840947120969
 20
906.0518513970361
 30
0.0
 11
9847.478108775626
 21
876.9065826174898
 31
0.0
  0
LINE
  5
25A
330
1F
100
AcDbEntity
  8
0
  6
Continuous
100
AcDbLine
 10
9847.478108775626
 20
876.9065826174898
 30
0.0
 11
9847.47810877563
 21
3003.261582716508
 31
0.0
  0
LINE
  5
25B
330
1F
100
AcDbEntity
  8
0
  6
Dash Short
100
AcDbLine
 10
9897.840947120969
 20
906.0518513970361
 30
0.0
 11
9897.84094712097
 21
1904.285623528973
 31
0.0
  0
LINE
  5
25C
330
1F
100
AcDbEntity
  8
0
  6
Dash Short
100
AcDbLine
 10
9897.840947120972
 20
1988.140601464639
 30
0.0
 11
9897.840947120972
 21
2989.974373562317
 31
0.0
  0
LINE
  5
25D
330
1F
100
AcDbEntity
  8
0
  6
Dash Short
100
AcDbLine
 10
11301.97218280026
 20
2619.522945061266
 30
0.0
 11
11301.97218280025
 21
493.1679449622472
 31
0.0
  0
LINE
  5
25E
330
1F
100
AcDbEntity
  8
0
  6
Dash Short
100
AcDbLine
 10
11389.62974099238
 20
512.4737614942254
 30
0.0
 11
11339.26690264704
 21
483.328492714679
 31
0.0
  0
LINE
  5
25F
330
1F
100
AcDbEntity
  8
0
  6
Dash Short
100
AcDbLine
 10
11339.26690264704
 20
483.328492714679
 30
0.0
 11
11339.26690264704
 21
2609.683492813697
 31
0.0
  0
LINE
  5
260
330
1F
100
AcDbEntity
  8
0
  6
Dash Short
100
AcDbLine
 10
11389.62974099238
 20
512.4737614942254
 30
0.0
 11
11389.62974099238
 21
1510.707533626171
 31
0.0
  0
LINE
  5
261
330
1F
100
AcDbEntity
  8
0
  6
Dash Short
100
AcDbLine
 10
11389.62974099238
 20
1594.562511561832
 30
0.0
 11
11389.62974099238
 21
2596.396283659507
 31
0.0
  0
LINE
  5
262
330
1F
100
AcDbEntity
  8
0
  6
Continuous
100
AcDbLine
 10
10307.44632021932
 20
2881.908338329807
 30
0.0
 11
10307.44632021931
 21
755.5533382307891
 31
0.0
  0
LINE
  5
263
330
1F
100
AcDbEntity
  8
0
  6
Dash Short
100
AcDbLine
 10
10395.10387841144
 20
774.8591547627668
 30
0.0
 11
10344.7410400661
 21
745.7138859832208
 31
0.0
  0
LINE
  5
264
330
1F
100
AcDbEntity
  8
0
  6
Dash Short
100
AcDbLine
 10
10344.7410400661
 20
745.7138859832208
 30
0.0
 11
10344.7410400661
 21
2872.068886082239
 31
0.0
  0
LINE
  5
265
330
1F
100
AcDbEntity
  8
0
  6
Dash Short
100
AcDbLine
 10
10395.10387841144
 20
774.8591547627668
 30
0.0
 11
10395.10387841144
 21
1773.092926894716
 31
0.0
  0
LINE
  5
266
330
1F
100
AcDbEntity
  8
0
  6
Dash Short
100
AcDbLine
 10
10395.10387841145
 20
1856.947904830377
 30
0.0
 11
10395.10387841145
 21
2858.781676928048
 31
0.0
  0
LINE
  5
267
330
1F
100
AcDbEntity
  8
0
  6
Dash Short
100
AcDbLine
 10
10804.70925150978
 20
2750.715641695534
 30
0.0
 11
10804.70925150978
 21
624.3606415965162
 31
0.0
  0
LINE
  5
268
330
1F
100
AcDbEntity
  8
0
  6
Dash Short
100
AcDbLine
 10
10892.36680970191
 20
643.6664581284944
 30
0.0
 11
10842.00397135657
 21
614.5211893489484
 31
0.0
  0
LINE
  5
269
330
1F
100
AcDbEntity
  8
0
  6
Dash Short
100
AcDbLine
 10
10842.00397135657
 20
614.5211893489484
 30
0.0
 11
10842.00397135657
 21
2740.876189447966
 31
0.0
  0
LINE
  5
26A
330
1F
100
AcDbEntity
  8
0
  6
Dash Short
100
AcDbLine
 10
10892.36680970191
 20
643.6664581284944
 30
0.0
 11
10892.36680970191
 21
1641.900230260444
 31
0.0
  0
LINE
  5
26B
330
1F
100
AcDbEntity
  8
0
  6
Dash Short
100
AcDbLine
 10
10892.36680970191
 20
1725.755208196105
 30
0.0
 11
10892.36680970191
 21
2727.588980293776
 31
0.0
  0
LINE
  5
26C
330
1F
100
AcDbEntity
  8
0
  6
Dash Short
100
AcDbLine
 10
11986.66353114909
 20
376.1747947545824
 30
0.0
 11
11986.66353114909
 21
2502.5297948536
 31
0.0
  0
LINE
  5
26D
330
1F
100
AcDbEntity
  8
0
  6
Dash Short
100
AcDbLine
 10
12264.88849581098
 20
564.4377517126633
 30
0.0
 11
12222.64492791847
 21
575.5828567235852
 31
0.0
  0
LINE
  5
26E
330
1F
100
AcDbEntity
  8
0
  6
Dash Short
100
AcDbLine
 10
12297.23436761205
 20
2682.258952327463
 30
0.0
 11
12297.23436761204
 21
581.155518265367
 31
0.0
  0
LINE
  5
26F
330
1F
100
AcDbEntity
  8
0
  6
Dash Short
100
AcDbLine
 10
12222.64492791847
 20
2639.093607811368
 30
0.0
 11
12222.64492791847
 21
1657.671606791183
 31
0.0
  0
LINE
  5
270
330
1F
100
AcDbEntity
  8
0
  6
Dash Short
100
AcDbLine
 10
12222.64492791847
 20
1553.404857778025
 30
0.0
 11
12222.64492791847
 21
575.5828567235852
 31
0.0
  0
LINE
  5
271
330
1F
100
AcDbEntity
  8
0
  6
Dash Short
100
AcDbLine
 10
12322.41578678471
 20
593.9554599369634
 30
0.0
 11
12322.41578678472
 21
2696.831586717233
 31
0.0
  0
LINE
  5
272
330
1F
100
AcDbEntity
  8
0
  6
Dash Short
100
AcDbLine
 10
12632.98662324767
 20
1081.98378753875
 30
0.0
 11
12632.98662324767
 21
1753.040933617878
 31
0.0
  0
LINE
  5
273
330
1F
100
AcDbEntity
  8
0
  6
Dash Short
100
AcDbLine
 10
12558.3971835541
 20
1747.706649641664
 30
0.0
 11
12558.3971835541
 21
834.7368858818163
 31
0.0
  0
LINE
  5
274
330
1F
100
AcDbEntity
  8
0
  6
Dash Short
100
AcDbLine
 10
12558.3971835541
 20
2833.395399675
 30
0.0
 11
12558.3971835541
 21
1851.973398654822
 31
0.0
  0
LINE
  5
275
330
1F
100
AcDbEntity
  8
0
  6
Dash Short
100
AcDbLine
 10
12894.14943918972
 20
3027.69719153864
 30
0.0
 11
12894.14943918972
 21
2867.928233656855
 31
0.0
  0
LINE
  5
276
330
1F
100
AcDbEntity
  8
0
  6
Dash Short
100
AcDbLine
 10
12990.85713541888
 20
2923.893543754638
 30
0.0
 11
12990.85713541888
 21
903.316150865391
 31
0.0
  0
LINE
  5
277
330
1F
100
AcDbEntity
  8
0
  6
Dash Short
100
AcDbLine
 10
13013.24061218083
 20
916.2695996359761
 30
0.0
 11
13013.24061218083
 21
2931.874814538959
 31
0.0
  0
LINE
  5
278
330
1F
100
AcDbEntity
  8
0
  6
Dash Short
100
AcDbLine
 10
11873.82455378429
 20
373.7184683384451
 30
0.0
 11
11836.52983393751
 21
352.135796080403
 31
0.0
  0
LINE
  5
279
330
1F
100
AcDbEntity
  8
0
  6
Dash Short
100
AcDbLine
 10
11836.52983393751
 20
2478.490796179425
 30
0.0
 11
11836.52983393751
 21
352.135796080403
 31
0.0
  0
LINE
  5
27A
330
1F
100
AcDbEntity
  8
0
  6
Dash Short
100
AcDbLine
 10
11799.23511409072
 20
361.9752483279748
 30
0.0
 11
11799.23511409072
 21
2488.330248426993
 31
0.0
  0
LINE
  5
27B
330
1F
100
AcDbEntity
  8
0
  6
Dash Short
100
AcDbLine
 10
9539.175091375526
 20
3126.023554631685
 30
0.0
 11
9589.53792972087
 21
3155.168823411231
 31
0.0
  0
LINE
  5
27C
330
1F
100
AcDbEntity
  8
0
  6
Dash Short
100
AcDbLine
 10
9539.175091375526
 20
3084.601054629756
 30
0.0
 11
9539.175091375526
 21
3126.023554631685
 31
0.0
  0
LINE
  5
27D
330
1F
100
AcDbEntity
  8
0
  6
Continuous
100
AcDbLine
 10
9539.175091375526
 20
3084.601054629756
 30
0.0
 11
10322.17657049363
 21
2878.022061806897
 31
0.0
  0
LINE
  5
27E
330
1F
100
AcDbEntity
  8
0
  6
Dash Short
100
AcDbLine
 10
9539.175091375526
 20
3084.601054629756
 30
0.0
 11
9539.175091375528
 21
3126.023554631685
 31
0.0
  0
LINE
  5
27F
330
1F
100
AcDbEntity
  8
0
  6
Continuous
100
AcDbLine
 10
8973.124121256551
 20
3275.364574300362
 30
0.0
 11
10322.17657049363
 21
2919.444561808828
 31
0.0
  0
LINE
  5
280
330
1F
100
AcDbEntity
  8
0
  6
Dash Short
100
AcDbLine
 10
11886.89267228284
 20
2549.058564960892
 30
0.0
 11
9589.537929720871
 21
3155.168823411231
 31
0.0
  0
LINE
  5
281
330
1F
100
AcDbEntity
  8
0
  6
Dash Short
100
AcDbLine
 10
11911.11927363108
 20
332.4568915852626
 30
0.0
 11
11911.11927363108
 21
291.0343915833375
 31
0.0
  0
LINE
  5
282
330
1F
100
AcDbEntity
  8
0
  6
Dash Short
100
AcDbLine
 10
9539.175091375526
 20
958.2460545307416
 30
0.0
 11
9589.537929720871
 21
987.3913233102916
 31
0.0
  0
LINE
  5
283
330
1F
100
AcDbEntity
  8
0
  6
Dash Short
100
AcDbLine
 10
9539.175091375526
 20
916.8235545288165
 30
0.0
 11
9539.175091375526
 21
958.2460545307416
 31
0.0
  0
LINE
  5
284
330
1F
100
AcDbEntity
  8
0
  6
Continuous
100
AcDbLine
 10
8973.124121256551
 20
1066.164574197493
 30
0.0
 11
10322.17657049362
 21
710.2445617059599
 31
0.0
  0
LINE
  5
285
330
1F
100
AcDbEntity
  8
0
  6
Dash Short
100
AcDbLine
 10
9539.175091375528
 20
916.8235545288202
 30
0.0
 11
9539.175091375528
 21
958.2460545307456
 31
0.0
  0
LINE
  5
286
330
1F
100
AcDbEntity
  8
0
  6
Dash Short
100
AcDbLine
 10
11911.11927363108
 20
332.4568915852626
 30
0.0
 11
11911.11927363108
 21
291.0343915833375
 31
0.0
  0
LINE
  5
287
330
1F
100
AcDbEntity
  8
0
  6
Continuous
100
AcDbLine
 10
9539.175091375528
 20
958.2460545307456
 30
0.0
 11
10322.17657049362
 21
751.6670617078892
 31
0.0
  0
LINE
  5
288
330
1F
100
AcDbEntity
  8
0
  6
Dash Short
100
AcDbLine
 10
11799.23511409072
 20
404.4077262617116
 30
0.0
 11
11389.62974099238
 21
512.4737614942219
 31
0.0
  0
LINE
  5
289
330
1F
100
AcDbEntity
  8
0
  6
Dash Short
100
AcDbLine
 10
11301.97218280025
 20
535.6004228959805
 30
0.0
 11
10892.36680970191
 21
643.6664581284944
 31
0.0
  0
LINE
  5
28A
330
1F
100
AcDbEntity
  8
0
  6
Dash Short
100
AcDbLine
 10
10804.70925150978
 20
666.793119530253
 30
0.0
 11
10395.10387841144
 21
774.8591547627632
 31
0.0
  0
LINE
  5
28B
330
1F
100
AcDbEntity
  8
0
  6
Continuous
100
AcDbLine
 10
10307.44632021931
 20
797.9858161645291
 30
0.0
 11
9897.84094712098
 21
906.0518513970361
 31
0.0
  0
LINE
  5
28C
330
1F
100
AcDbEntity
  8
0
  6
Continuous
100
AcDbLine
 10
9810.18338892884
 20
929.1785127987984
 30
0.0
 11
9589.537929720873
 21
987.3913233102916
 31
0.0
  0
LINE
  5
28D
330
1F
100
AcDbEntity
  8
0
  6
Dash Short
100
AcDbLine
 10
13419.29521486634
 20
1205.247119823261
 30
0.0
 11
13419.29521486634
 21
1163.824619821336
 31
0.0
  0
LINE
  5
28E
330
1F
100
AcDbEntity
  8
0
  6
Dash Short
100
AcDbLine
 10
13344.70577517278
 20
1224.926024318401
 30
0.0
 11
13419.29521486634
 21
1205.247119823261
 31
0.0
  0
LINE
  5
28F
330
1F
100
AcDbEntity
  8
0
  6
Dash Short
100
AcDbLine
 10
12322.41578678472
 20
633.3208356294468
 30
0.0
 11
12372.01413759835
 21
662.0236910081138
 31
0.0
  0
LINE
  5
290
330
1F
100
AcDbEntity
  8
0
  6
Dash Short
100
AcDbLine
 10
13329.67255369159
 20
1216.226211220358
 30
0.0
 11
13344.70577517278
 21
1224.926024318401
 31
0.0
  0
LINE
  5
291
330
1F
100
AcDbEntity
  8
0
  6
Dash Short
100
AcDbLine
 10
13419.29521486635
 20
1205.247119823261
 30
0.0
 11
13419.29521486635
 21
1163.824619821336
 31
0.0
  0
LINE
  5
292
330
1F
100
AcDbEntity
  8
0
  6
Dash Short
100
AcDbLine
 10
11911.11927363107
 20
332.456891585268
 30
0.0
 11
12219.85559555455
 21
511.1244047775579
 31
0.0
  0
LINE
  5
293
330
1F
100
AcDbEntity
  8
0
  6
Dash Short
100
AcDbLine
 10
11911.11927363107
 20
291.0343915833398
 30
0.0
 11
12225.28447723635
 21
472.843630321432
 31
0.0
  0
LINE
  5
294
330
1F
100
AcDbEntity
  8
0
  6
Dash Short
100
AcDbLine
 10
13344.70577517277
 20
1224.926024318401
 30
0.0
 11
13329.67255369159
 21
1216.226211220358
 31
0.0
  0
LINE
  5
295
330
1F
100
AcDbEntity
  8
0
  6
Dash Short
100
AcDbLine
 10
13229.90169482535
 20
1158.488232314497
 30
0.0
 11
13064.83778144539
 21
1062.96478130735
 31
0.0
  0
LINE
  5
296
330
1F
100
AcDbEntity
  8
0
  6
Dash Short
100
AcDbLine
 10
12222.64492791847
 20
575.5828567235852
 30
0.0
 11
11986.66353114909
 21
439.0190437658141
 31
0.0
  0
LINE
  5
297
330
1F
100
AcDbEntity
  8
0
  6
Dash Short
100
AcDbLine
 10
13344.70577517278
 20
3392.703524419319
 30
0.0
 11
13419.29521486634
 21
3373.024619924179
 31
0.0
  0
LINE
  5
298
330
1F
100
AcDbEntity
  8
0
  6
Continuous
100
AcDbLine
 10
13419.29521486635
 20
3673.53861993741
 30
0.0
 11
13419.29521486635
 21
3331.602119922252
 31
0.0
  0
LINE
  5
299
330
1F
100
AcDbEntity
  8
0
  6
Dash Short
100
AcDbLine
 10
11911.11927363107
 20
2500.234391686209
 30
0.0
 11
13324.28219710539
 21
3318.040031462149
 31
0.0
  0
LINE
  5
29A
330
1F
100
AcDbEntity
  8
0
  6
Dash Short
100
AcDbLine
 10
13344.70577517277
 20
3392.703524419319
 30
0.0
 11
11886.89267228284
 21
2549.058564960892
 31
0.0
  0
LINE
  5
29B
330
1F
100
AcDbEntity
  8
0
  6
Dash Short
100
AcDbLine
 10
9847.47810877563
 20
1958.995332685104
 30
0.0
 11
9897.840947120972
 21
1988.140601464647
 31
0.0
  0
LINE
  5
29C
330
1F
100
AcDbEntity
  8
0
  6
Continuous
100
AcDbLine
 10
10307.44632021931
 20
1837.6420882984
 30
0.0
 11
9847.47810877563
 21
1958.995332685104
 31
0.0
  0
LINE
  5
29D
330
1F
100
AcDbEntity
  8
0
  6
Continuous
100
AcDbLine
 10
9847.47810877563
 20
1917.572832683175
 30
0.0
 11
10307.44632021931
 21
1796.219588296475
 31
0.0
  0
LINE
  5
29E
330
1F
100
AcDbEntity
  8
0
  6
Continuous
100
AcDbLine
 10
10307.44632021931
 20
1880.074566232136
 30
0.0
 11
9897.840947120972
 21
1988.140601464647
 31
0.0
  0
LINE
  5
29F
330
1F
100
AcDbEntity
  8
0
  6
Dash Short
100
AcDbLine
 10
10344.74104006611
 20
1827.802636050831
 30
0.0
 11
10395.10387841146
 21
1856.947904830374
 31
0.0
  0
LINE
  5
2A0
330
1F
100
AcDbEntity
  8
0
  6
Dash Short
100
AcDbLine
 10
10804.70925150979
 20
1706.449391664127
 30
0.0
 11
10344.74104006611
 21
1827.802636050831
 31
0.0
  0
LINE
  5
2A1
330
1F
100
AcDbEntity
  8
0
  6
Dash Short
100
AcDbLine
 10
10344.74104006611
 20
1786.380136048903
 30
0.0
 11
10804.70925150979
 21
1665.026891662202
 31
0.0
  0
LINE
  5
2A2
330
1F
100
AcDbEntity
  8
0
  6
Dash Short
100
AcDbLine
 10
10804.70925150979
 20
1748.881869597864
 30
0.0
 11
10395.10387841146
 21
1856.947904830374
 31
0.0
  0
LINE
  5
2A3
330
1F
100
AcDbEntity
  8
0
  6
Dash Short
100
AcDbLine
 10
10842.00397135658
 20
1696.609939416559
 30
0.0
 11
10892.36680970193
 21
1725.755208196102
 31
0.0
  0
LINE
  5
2A4
330
1F
100
AcDbEntity
  8
0
  6
Dash Short
100
AcDbLine
 10
11301.97218280026
 20
1575.256695029855
 30
0.0
 11
10842.00397135658
 21
1696.609939416559
 31
0.0
  0
LINE
  5
2A5
330
1F
100
AcDbEntity
  8
0
  6
Dash Short
100
AcDbLine
 10
10842.00397135658
 20
1655.18743941463
 30
0.0
 11
11301.97218280026
 21
1533.83419502793
 31
0.0
  0
LINE
  5
2A6
330
1F
100
AcDbEntity
  8
0
  6
Dash Short
100
AcDbLine
 10
11301.97218280026
 20
1617.689172963591
 30
0.0
 11
10892.36680970193
 21
1725.755208196102
 31
0.0
  0
LINE
  5
2A7
330
1F
100
AcDbEntity
  8
0
  6
Dash Short
100
AcDbLine
 10
11339.26690264705
 20
1565.417242782286
 30
0.0
 11
11389.62974099239
 21
1594.562511561829
 31
0.0
  0
LINE
  5
2A8
330
1F
100
AcDbEntity
  8
0
  6
Dash Short
100
AcDbLine
 10
11799.23511409073
 20
1444.063998395583
 30
0.0
 11
11339.26690264705
 21
1565.417242782286
 31
0.0
  0
LINE
  5
2A9
330
1F
100
AcDbEntity
  8
0
  6
Dash Short
100
AcDbLine
 10
11339.26690264705
 20
1523.994742780358
 30
0.0
 11
11799.23511409073
 21
1402.641498393657
 31
0.0
  0
LINE
  5
2AA
330
1F
100
AcDbEntity
  8
0
  6
Dash Short
100
AcDbLine
 10
11799.23511409073
 20
1486.496476329319
 30
0.0
 11
11389.62974099239
 21
1594.562511561829
 31
0.0
  0
LINE
  5
2AB
330
1F
100
AcDbEntity
  8
0
  6
Dash Short
100
AcDbLine
 10
12558.3971835541
 20
1851.973398654821
 30
0.0
 11
12622.38738170078
 21
1835.090888166379
 31
0.0
  0
LINE
  5
2AC
330
1F
100
AcDbEntity
  8
0
  6
Dash Short
100
AcDbLine
 10
12623.53938665395
 20
1826.827323150381
 30
0.0
 11
12322.41578678472
 21
1652.565336685818
 31
0.0
  0
LINE
  5
2AD
330
1F
100
AcDbEntity
  8
0
  6
Dash Short
100
AcDbLine
 10
12322.41578678472
 20
1611.142836683893
 30
0.0
 11
12628.98666926167
 21
1788.557197417576
 31
0.0
  0
LINE
  5
2AE
330
1F
100
AcDbEntity
  8
0
  6
Dash Short
100
AcDbLine
 10
12558.3971835541
 20
1851.973398654821
 30
0.0
 11
12322.41578678472
 21
1715.409585697043
 31
0.0
  0
LINE
  5
2AF
330
1F
100
AcDbEntity
  8
0
  6
Dash Short
100
AcDbLine
 10
12222.64492791848
 20
1657.671606791185
 30
0.0
 11
12297.23436761205
 21
1637.992702296045
 31
0.0
  0
LINE
  5
2B0
330
1F
100
AcDbEntity
  8
0
  6
Dash Short
100
AcDbLine
 10
12297.23436761205
 20
1637.992702296045
 30
0.0
 11
11986.6635311491
 21
1458.263544822182
 31
0.0
  0
LINE
  5
2B1
330
1F
100
AcDbEntity
  8
0
  6
Dash Short
100
AcDbLine
 10
11986.6635311491
 20
1416.841044820257
 30
0.0
 11
12297.23436761205
 21
1596.570202294116
 31
0.0
  0
LINE
  5
2B2
330
1F
100
AcDbEntity
  8
0
  6
Dash Short
100
AcDbLine
 10
12222.64492791848
 20
1657.671606791185
 30
0.0
 11
11986.6635311491
 21
1521.107793833407
 31
0.0
  0
LINE
  5
2B3
330
1F
100
AcDbEntity
  8
0
  6
Continuous
100
AcDbLine
 10
9539.175091375526
 20
3426.537554644879
 30
0.0
 11
9589.537929720871
 21
3455.682823424429
 31
0.0
  0
LINE
  5
2B4
330
1F
100
AcDbEntity
  8
0
  6
Continuous
100
AcDbLine
 10
9539.175091375526
 20
3385.115054642954
 30
0.0
 11
9539.175091375526
 21
3426.537554644879
 31
0.0
  0
LINE
  5
2B5
330
1F
100
AcDbEntity
  8
0
  6
Continuous
100
AcDbLine
 10
8973.124121256551
 20
3534.456074311632
 30
0.0
 11
11911.11927363107
 21
2759.325891697476
 31
0.0
  0
LINE
  5
2B6
330
1F
100
AcDbEntity
  8
0
  6
Continuous
100
AcDbLine
 10
9539.175091375528
 20
3426.537554644883
 30
0.0
 11
11911.11927363107
 21
2800.748391699407
 31
0.0
  0
LINE
  5
2B7
330
1F
100
AcDbEntity
  8
0
  6
Continuous
100
AcDbLine
 10
11799.23511409072
 20
2872.699226375849
 30
0.0
 11
11389.62974099238
 21
2980.76526160836
 31
0.0
  0
LINE
  5
2B8
330
1F
100
AcDbEntity
  8
0
  6
Continuous
100
AcDbLine
 10
11301.97218280025
 20
3003.891923010118
 30
0.0
 11
10892.36680970191
 21
3111.957958242632
 31
0.0
  0
LINE
  5
2B9
330
1F
100
AcDbEntity
  8
0
  6
Continuous
100
AcDbLine
 10
10804.70925150978
 20
3135.084619644391
 30
0.0
 11
10395.10387841144
 21
3243.150654876901
 31
0.0
  0
LINE
  5
2BA
330
1F
100
AcDbEntity
  8
0
  6
Continuous
100
AcDbLine
 10
10307.44632021931
 20
3266.277316278667
 30
0.0
 11
9897.84094712098
 21
3374.343351511174
 31
0.0
  0
LINE
  5
2BB
330
1F
100
AcDbEntity
  8
0
  6
Continuous
100
AcDbLine
 10
9810.18338892884
 20
3397.470012912936
 30
0.0
 11
9589.537929720873
 21
3455.682823424429
 31
0.0
  0
LINE
  5
2BC
330
1F
100
AcDbEntity
  8
0
  6
Continuous
100
AcDbLine
 10
13344.70577517278
 20
3693.217524432543
 30
0.0
 11
13419.29521486634
 21
3673.538619937402
 31
0.0
  0
LINE
  5
2BD
330
1F
100
AcDbEntity
  8
0
  6
Continuous
100
AcDbLine
 10
11911.11927363108
 20
2800.748391699415
 30
0.0
 11
13419.29521486635
 21
3673.53861993741
 31
0.0
  0
LINE
  5
2BE
330
1F
100
AcDbEntity
  8
0
  6
Continuous
100
AcDbLine
 10
13344.70577517277
 20
3693.217524432543
 30
0.0
 11
13329.67255369159
 21
3684.5177113345
 31
0.0
  0
LINE
  5
2BF
330
1F
100
AcDbEntity
  8
0
  6
Continuous
100
AcDbLine
 10
13229.90169482535
 20
3626.779732428638
 30
0.0
 11
12993.92029805597
 21
3490.215919470864
 31
0.0
  0
LINE
  5
2C0
330
1F
100
AcDbEntity
  8
0
  6
Continuous
100
AcDbLine
 10
12894.14943918972
 20
3432.477940565002
 30
0.0
 11
12658.16804242034
 21
3295.914127607228
 31
0.0
  0
LINE
  5
2C1
330
1F
100
AcDbEntity
  8
0
  6
Continuous
100
AcDbLine
 10
12558.3971835541
 20
3238.176148701362
 30
0.0
 11
12322.41578678472
 21
3101.612335743588
 31
0.0
  0
LINE
  5
2C2
330
1F
100
AcDbEntity
  8
0
  6
Continuous
100
AcDbLine
 10
12222.64492791847
 20
3043.874356837727
 30
0.0
 11
11986.66353114909
 21
2907.310543879956
 31
0.0
  0
LINE
  5
2C3
330
1F
100
AcDbEntity
  8
0
  6
Dash Short
100
AcDbLine
 10
11873.82455378429
 20
2468.651343931853
 30
0.0
 11
11873.82455378429
 21
342.2963438328348
 31
0.0
  0
LINE
  5
2C4
330
1F
100
AcDbEntity
  8
0
  6
Dash Short
100
AcDbLine
 10
11961.48211197642
 20
361.602160364813
 30
0.0
 11
11961.48211197642
 21
2487.957160463831
 31
0.0
  0
LINE
  5
2C5
330
1F
100
AcDbEntity
  8
0
  6
Dash Short
100
AcDbLine
 10
13229.90169482535
 20
2240.57698238209
 30
0.0
 11
13304.49113451892
 21
2220.89807788695
 31
0.0
  0
LINE
  5
2C6
330
1F
100
AcDbEntity
  8
0
  6
Dash Short
100
AcDbLine
 10
13304.49113451892
 20
2220.89807788695
 30
0.0
 11
13065.16681705288
 21
2082.399697192048
 31
0.0
  0
LINE
  5
2C7
330
1F
100
AcDbEntity
  8
0
  6
Dash Short
100
AcDbLine
 10
13074.54283755476
 20
2046.403155031026
 30
0.0
 11
13304.49113451892
 21
2179.475577885021
 31
0.0
  0
LINE
  5
2C8
330
1F
100
AcDbEntity
  8
0
  6
Dash Short
100
AcDbLine
 10
13229.90169482535
 20
2240.57698238209
 30
0.0
 11
13070.32160901158
 21
2148.227054425036
 31
0.0
  0
LINE
  5
2C9
330
1F
100
AcDbEntity
  8
0
  6
Dash Short
100
AcDbLine
 10
13329.67255369159
 20
3279.736962308148
 30
0.0
 11
13329.67255369159
 21
1153.38196220913
 31
0.0
  0
LINE
  5
2CA
330
1F
100
AcDbEntity
  8
0
  6
Dash Short
100
AcDbLine
 10
13329.67255369159
 20
3279.736962308148
 30
0.0
 11
13329.67255369159
 21
1153.38196220913
 31
0.0
  0
LINE
  5
2CB
330
1F
100
AcDbEntity
  8
0
  6
Dash Short
100
AcDbLine
 10
11911.11927363085
 20
2458.811891684331
 30
0.0
 11
13324.28220026229
 21
3276.617533287161
 31
0.0
  0
LINE
  5
2CC
330
1F
100
AcDbEntity
  8
0
  6
Dash Short
100
AcDbLine
 10
13304.49113451892
 20
1138.809327819357
 30
0.0
 11
13229.90169482535
 21
1158.488232314497
 31
0.0
  0
LINE
  5
2CD
330
1F
100
AcDbEntity
  8
0
  6
Dash Short
100
AcDbLine
 10
13329.67255369159
 20
3279.736962308144
 30
0.0
 11
13329.67255369159
 21
1153.38196220913
 31
0.0
  0
LINE
  5
2CE
330
1F
100
AcDbEntity
  8
0
  6
Dash Short
100
AcDbLine
 10
13229.90169482535
 20
1158.488232314497
 30
0.0
 11
13229.90169482535
 21
2136.310233368931
 31
0.0
  0
LINE
  5
2CF
330
1F
100
AcDbEntity
  8
0
  6
Dash Short
100
AcDbLine
 10
13229.90169482535
 20
2240.576982382089
 30
0.0
 11
13229.90169482535
 21
3221.998983402261
 31
0.0
  0
LINE
  5
2D0
330
1F
100
AcDbEntity
  8
0
  6
Dash Short
100
AcDbLine
 10
13304.49113451892
 20
1138.809327819361
 30
0.0
 11
13304.49113451892
 21
3265.164327918375
 31
0.0
  0
LINE
  5
2D1
330
1F
100
AcDbEntity
  8
0
  6
Continuous
100
AcDbLine
 10
10257.44838061459
 20
1809.410526349855
 30
0.0
 11
9897.840947120976
 21
1601.303603693403
 31
0.0
  0
LINE
  5
2D2
330
1F
100
AcDbEntity
  8
0
  6
Dash Short
100
AcDbLine
 10
10322.17657049363
 20
2919.444561808828
 30
0.0
 11
11911.11927363107
 21
2500.234391686209
 31
0.0
  0
LINE
  5
2D3
330
1F
100
AcDbEntity
  8
0
  6
Continuous
100
AcDbLine
 10
13324.28220026229
 20
3276.617533287132
 30
0.0
 11
13419.29521486635
 21
3331.602119922252
 31
0.0
  0
LINE
  5
2D4
330
1F
100
AcDbEntity
  8
0
  6
Continuous
100
AcDbLine
 10
13324.28219710539
 20
3318.040031462149
 30
0.0
 11
13419.29521486634
 21
3373.024619924182
 31
0.0
  0
LINE
  5
2D5
330
1F
100
AcDbEntity
  8
0
  6
Dash Short
100
AcDbLine
 10
12968.73887888329
 20
3070.862536054735
 30
0.0
 11
12968.73887888329
 21
2911.093579098168
 31
0.0
  0
LINE
  5
2D6
330
1F
100
AcDbEntity
  8
0
  6
Dash Short
100
AcDbLine
 10
12975.93924799969
 20
907.2519316273523
 30
0.0
 11
12975.93924799969
 21
2915.260478166882
 31
0.0
  0
LINE
  5
2D7
330
1F
100
AcDbEntity
  8
0
  6
Continuous
100
AcDbLine
 10
13013.24061218083
 20
916.2695996359761
 30
0.0
 11
12990.85713541888
 21
903.316150865391
 31
0.0
  0
LINE
  5
2D8
330
1F
100
AcDbEntity
  8
0
  6
Continuous
100
AcDbLine
 10
12990.85713541888
 20
903.316150865391
 30
0.0
 11
12975.93924799969
 21
907.2519316273523
 31
0.0
  0
LINE
  5
2D9
330
1F
100
AcDbEntity
  8
0
  6
Dash Short
100
AcDbLine
 10
13073.07422280572
 20
1004.887009030172
 30
0.0
 11
13324.28221270212
 21
1150.262540387151
 31
0.0
  0
LINE
  5
2DA
330
1F
100
AcDbEntity
  8
0
  6
Dash Short
100
AcDbLine
 10
13065.11186300573
 20
958.8566448943947
 30
0.0
 11
13324.28221270212
 21
1108.840040385219
 31
0.0
  0
LINE
  5
2DB
330
1F
100
AcDbEntity
  8
0
  6
Dash Short
100
AcDbLine
 10
12632.98662324767
 20
2308.089787595848
 30
0.0
 11
12632.98662324767
 21
2876.560744191099
 31
0.0
  0
LINE
  5
2DC
330
1F
100
AcDbEntity
  8
0
  6
Dash Short
100
AcDbLine
 10
12640.18699184454
 20
1746.834482740723
 30
0.0
 11
12640.18699184454
 21
2416.418345961645
 31
0.0
  0
LINE
  5
2DD
330
1F
100
AcDbEntity
  8
0
  6
Dash Short
100
AcDbLine
 10
12655.10487978326
 20
1667.127365347625
 30
0.0
 11
12655.10487978326
 21
2423.065251876731
 31
0.0
  0
LINE
  5
2DE
330
1F
100
AcDbEntity
  8
0
  6
Dash Short
100
AcDbLine
 10
12677.4883634923
 20
1579.271137576462
 30
0.0
 11
12677.4883634923
 21
2436.018704667636
 31
0.0
  0
LINE
  5
2DF
330
1F
100
AcDbEntity
  8
0
  6
Dash Short
100
AcDbLine
 10
12677.4883634923
 20
721.9678117926655
 30
0.0
 11
12677.4883634923
 21
1107.737204605782
 31
0.0
  0
LINE
  5
2E0
330
1F
100
AcDbEntity
  8
0
  6
Dash Short
100
AcDbLine
 10
12655.10487978326
 20
1097.18339015207
 30
0.0
 11
12655.10487978326
 21
709.014359001757
 31
0.0
  0
LINE
  5
2E1
330
1F
100
AcDbEntity
  8
0
  6
Dash Short
100
AcDbLine
 10
12640.18699184454
 20
712.9501399007845
 30
0.0
 11
12640.18699184454
 21
1086.150682911655
 31
0.0
  0
LINE
  5
2E2
330
1F
100
AcDbEntity
  8
0
  6
Continuous
100
AcDbLine
 10
12677.4883634923
 20
721.9678117926655
 30
0.0
 11
12655.10487978326
 21
709.014359001757
 31
0.0
  0
LINE
  5
2E3
330
1F
100
AcDbEntity
  8
0
  6
Continuous
100
AcDbLine
 10
12655.10487978326
 20
709.014359001757
 30
0.0
 11
12640.18699184454
 21
712.9501399007845
 31
0.0
  0
LINE
  5
2E4
330
1F
100
AcDbEntity
  8
0
  6
Dash Short
100
AcDbLine
 10
12341.73610785667
 20
526.0168904922
 30
0.0
 11
12341.73610785668
 21
606.9089127278744
 31
0.0
  0
LINE
  5
2E5
330
1F
100
AcDbEntity
  8
0
  6
Dash Short
100
AcDbLine
 10
12318.05932277153
 20
567.9554754425101
 30
0.0
 11
12318.05932277153
 21
512.3149966392301
 31
0.0
  0
LINE
  5
2E6
330
1F
100
AcDbEntity
  8
0
  6
Dash Short
100
AcDbLine
 10
12303.14143483281
 20
516.2507775382576
 30
0.0
 11
12303.14143483281
 21
559.3224065392932
 31
0.0
  0
LINE
  5
2E7
330
1F
100
AcDbEntity
  8
0
  6
Continuous
100
AcDbLine
 10
12341.73610785667
 20
526.0168904922
 30
0.0
 11
12318.05932277153
 21
512.3149966392301
 31
0.0
  0
LINE
  5
2E8
330
1F
100
AcDbEntity
  8
0
  6
Continuous
100
AcDbLine
 10
12318.05932277153
 20
512.3149966392301
 30
0.0
 11
12303.14143483281
 21
516.2507775382576
 31
0.0
  0
LINE
  5
2E9
330
1F
100
AcDbEntity
  8
0
  6
Dash Short
100
AcDbLine
 10
10322.17658303706
 20
2878.022058497566
 30
0.0
 11
11911.11927363085
 21
2458.811891684331
 31
0.0
  0
LINE
  5
2EA
330
1F
100
AcDbEntity
  8
0
  6
Dash Short
100
AcDbLine
 10
10322.17657049362
 20
751.6670617078892
 30
0.0
 11
11911.11927363107
 21
332.456891585268
 31
0.0
  0
LINE
  5
2EB
330
1F
100
AcDbEntity
  8
0
  6
Dash Short
100
AcDbLine
 10
10322.17657049362
 20
710.2445617059599
 30
0.0
 11
11911.11927363107
 21
291.0343915833398
 31
0.0
  0
LINE
  5
2EC
330
1F
100
AcDbEntity
  8
0
  6
Continuous
100
AcDbLine
 10
11911.11927363107
 20
2740.325891697476
 30
0.0
 11
13419.29521486635
 21
3613.116119935477
 31
0.0
  0
LINE
  5
2ED
330
1F
100
AcDbEntity
  8
0
  6
Continuous
100
AcDbLine
 10
8973.124121256551
 20
3515.456074311631
 30
0.0
 11
11911.11927363107
 21
2740.325891697476
 31
0.0
  0
MTEXT
  5
2EF
102
{ACAD_REACTORS
330
312
102
}
330
1F
100
AcDbEntity
  8
0
  6
Continuous
100
AcDbMText
 10
14003.92703006524
 20
2.497819369955925
 30
0.0
 40
94.5
 41
1590.921052514985
 71
     4
 72
     1
  1
{Foundation}
  7
GENERATED_STYLE_1
 73
     1
 44
1.0
  0
LEADER
  5
312
330
1F
100
AcDbEntity
  8
0
  6
Continuous
100
AcDbLeader
  3
GENERATED_STYLE__1
 73
     0
 74
     0
 40
96.012
 41
639.954
 76
     3
 10
12661.7110045734
 20
552.5816480335195
 30
0.0
 10
13411.66604896983
 20
2.497819369955925
 30
0.0
 10
14003.83703006524
 20
2.497819369955925
 30
0.0
340
2EF
  0
MTEXT
  5
319
102
{ACAD_REACTORS
330
31A
102
}
330
1F
100
AcDbEntity
  8
0
  6
Continuous
100
AcDbMText
 10
14003.92703006524
 20
2062.373651101165
 30
0.0
 40
94.5
 41
816.4802108150384
 71
     4
 72
     1
  1
{Weatherboard}
  7
GENERATED_STYLE_1
 73
     1
 44
1.0
  0
LEADER
  5
31A
330
1F
100
AcDbEntity
  8
0
  6
Continuous
100
AcDbLeader
  3
GENERATED_STYLE__1
 73
     0
 74
     0
 40
96.012
 41
824.607
 76
     3
 10
12996.36460175661
 20
1416.652364493758
 30
0.0
 10
13854.65122939331
 20
2062.373651101165
 30
0.0
 10
14003.83703006524
 20
2062.373651101165
 30
0.0
340
319
  0
MTEXT
  5
31B
102
{ACAD_REACTORS
330
31C
102
}
330
1F
100
AcDbEntity
  8
0
  6
Continuous
100
AcDbMText
 10
14005.1116208413
 20
2492.498397766377
 30
0.0
 40
94.5
 41
474.3367618816192
 71
     4
 72
     1
  1
{Framing}
  7
GENERATED_STYLE_1
 73
     1
 44
1.0
  0
LEADER
  5
31C
330
1F
100
AcDbEntity
  8
0
  6
Continuous
100
AcDbLeader
  3
GENERATED_STYLE__1
 73
     0
 74
     0
 40
122.1885
 41
464.0895
 76
     3
 10
13242.69377609967
 20
2092.277708150906
 30
0.0
 10
13789.51492346618
 20
2492.498397766377
 30
0.0
 10
14005.0216208413
 20
2492.498397766377
 30
0.0
340
31B
  0
MTEXT
  5
31D
102
{ACAD_REACTORS
330
31E
102
}
330
1F
100
AcDbEntity
  8
0
  6
Continuous
100
AcDbMText
 10
14005.660760183
 20
3027.235831016793
 30
0.0
 40
94.5
 41
810.4322092534455
 71
     4
 72
     1
  1
{Ecoply Barrier}
  7
GENERATED_STYLE_1
 73
     1
 44
1.0
  0
LEADER
  5
31E
330
1F
100
AcDbEntity
  8
0
  6
Continuous
100
AcDbLeader
  3
GENERATED_STYLE__1
 73
     0
 74
     0
 40
253.512
 41
387.9225
 76
     3
 10
13199.71156852762
 20
2496.853275070258
 30
0.0
 10
13920.79901627132
 20
3027.235831016793
 30
0.0
 10
14005.570760183
 20
3027.235831016793
 30
0.0
340
31D
  0
MTEXT
  5
31F
102
{ACAD_REACTORS
330
320
102
}
330
1F
100
AcDbEntity
  8
0
  6
Continuous
100
AcDbMText
 10
14003.81120869555
 20
693.7158566965462
 30
0.0
 40
94.5
 41
1115.424927410464
 71
     4
 72
     1
  1
{Cavity packers\P(5° minimum slope)}
  7
GENERATED_STYLE_1
 73
     1
 44
0.4637332493929311
  0
LEADER
  5
320
330
1F
100
AcDbEntity
  8
0
  6
Continuous
100
AcDbLeader
  3
GENERATED_STYLE__1
 73
     0
 74
     0
 40
271.3609484890728
 41
853.2404999999999
 76
     3
 10
13213.26501402335
 20
1053.282621651355
 30
0.0
 10
13683.63656988522
 20
693.7158566965462
 30
0.0
 10
14003.72120869555
 20
693.7158566965462
 30
0.0
340
31F
  0
MTEXT
  5
321
102
{ACAD_REACTORS
330
322
102
}
330
1F
100
AcDbEntity
  8
0
  6
Continuous
100
AcDbMText
 10
14005.660760183
 20
3638.722517910595
 30
0.0
 40
94.5
 41
818.2090105213587
 71
     4
 72
     1
  1
{Cavity battens}
  7
GENERATED_STYLE_1
 73
     1
 44
1.0
  0
LEADER
  5
322
330
1F
100
AcDbEntity
  8
0
  6
Continuous
100
AcDbLeader
  3
GENERATED_STYLE__1
 73
     0
 74
     0
 40
255.1185
 41
418.9185
 76
     3
 10
13013.24061533772
 20
2972.73820129962
 30
0.0
 10
13920.79901627132
 20
3638.722517910595
 30
0.0
 10
14005.570760183
 20
3638.722517910595
 30
0.0
340
321
  0
MTEXT
  5
323
330
1F
100
AcDbEntity
  8
0
  6
Continuous
100
AcDbMText
 10
8932.895687374414
 20
4849.589180161013
 30
0.0
 40
108.0
 41
0.0
 71
     1
 72
     1
  1
{BAR002: Ecoply Barrier with weatherboard}
  7
GENERATED_STYLE_1
 73
     1
 44
1.0
  0
ENDSEC
  0
SECTION
  2
OBJECTS
  0
DICTIONARY
  5
C
330
0
100
AcDbDictionary
281
     1
  3
ACAD_GROUP
350
D
  3
ACAD_LAYOUT
350
1A
  3
ACAD_MLEADERSTYLE
350
32C
  3
ACAD_MLINESTYLE
350
17
  3
ACAD_PLOTSETTINGS
350
19
  3
ACAD_PLOTSTYLENAME
350
E
  3
ACAD_SCALELIST
350
2F0
  3
ACAD_TABLESTYLE
350
32B
  3
ACAD_VISUALSTYLE
350
2A
  3
AcDbVariableDictionary
350
329
  3
WATERMARKS
350
327
  0
DICTIONARY
  5
D
102
{ACAD_REACTORS
330
C
102
}
330
C
100
AcDbDictionary
281
     1
  0
DICTIONARY
  5
1A
102
{ACAD_REACTORS
330
C
102
}
330
C
100
AcDbDictionary
281
     1
  3
Layout1
350
1E
  3
Layout2
350
26
  3
Model
350
22
  0
DICTIONARY
  5
32C
102
{ACAD_REACTORS
330
C
102
}
330
C
100
AcDbDictionary
281
     1
  0
DICTIONARY
  5
17
102
{ACAD_REACTORS
330
C
102
}
330
C
100
AcDbDictionary
281
     1
  3
Standard
350
18
  0
DICTIONARY
  5
19
102
{ACAD_REACTORS
330
C
102
}
330
C
100
AcDbDictionary
281
     1
  0
ACDBDICTIONARYWDFLT
  5
E
102
{ACAD_REACTORS
330
C
102
}
330
C
100
AcDbDictionary
281
     1
  3
Normal
350
F
100
AcDbDictionaryWithDefault
340
F
  0
DICTIONARY
  5
2F0
102
{ACAD_REACTORS
330
C
102
}
330
C
100
AcDbDictionary
281
     1
  3
A0
350
2F1
  3
A1
350
2F2
  3
A2
350
2F3
  3
A3
350
2F4
  3
A4
350
2F5
  3
A5
350
2F6
  3
A6
350
2F7
  3
A7
350
2F8
  3
A8
350
2F9
  3
A9
350
2FA
  3
B0
350
2FB
  3
B1
350
2FC
  3
B2
350
2FD
  3
B3
350
2FE
  3
B4
350
2FF
  3
B5
350
300
  3
B6
350
301
  3
B7
350
302
  3
B8
350
303
  3
B9
350
304
  3
C0
350
305
  3
C1
350
306
  3
C2
350
307
  3
C3
350
308
  3
C4
350
309
  3
C5
350
30A
  3
C6
350
30B
  3
C7
350
30C
  3
C8
350
30D
  3
C9
350
30E
  3
D0
350
30F
  3
D1
350
310
  3
D2
350
311
  0
DICTIONARY
  5
32B
102
{ACAD_REACTORS
330
C
102
}
330
C
100
AcDbDictionary
281
     1
  0
DICTIONARY
  5
2A
102
{ACAD_REACTORS
330
C
102
}
330
C
100
AcDbDictionary
281
     1
  3
2dWireframe
350
2F
  3
3D Hidden
350
31
  3
3dWireframe
350
30
  3
Basic
350
32
  3
Brighten
350
36
  3
ColorChange
350
3A
  3
Conceptual
350
34
  3
Dim
350
35
  3
Facepattern
350
39
  3
Flat
350
2B
  3
FlatWithEdges
350
2C
  3
Gouraud
350
2D
  3
GouraudWithEdges
350
2E
  3
Linepattern
350
38
  3
Realistic
350
33
  3
Thicken
350
37
  0
DICTIONARY
  5
329
102
{ACAD_REACTORS
330
C
102
}
330
C
100
AcDbDictionary
281
     1
  3
CANNOSCALE
350
32A
  0
DICTIONARY
  5
327
102
{ACAD_REACTORS
330
C
102
}
330
C
100
AcDbDictionary
281
     1
  3
AC_WATERMARK
350
328
  0
LAYOUT
  5
1E
102
{ACAD_REACTORS
330
1A
102
}
330
1A
100
AcDbPlotSettings
  1

  2
none_device
  4

  6

 40
0.0
 41
0.0
 42
0.0
 43
0.0
 44
0.0
 45
0.0
 46
0.0
 47
0.0
 48
0.0
 49
0.0
140
0.0
141
0.0
142
1.0
143
1.0
 70
   688
 72
     0
 73
     0
 74
     5
  7

 75
    16
 76
     0
 77
     2
 78
   300
147
1.0
148
0.0
149
0.0
100
AcDbLayout
  1
Layout1
 70
     1
 71
     1
 10
0.0
 20
0.0
 11
12.0
 21
9.0
 12
0.0
 22
0.0
 32
0.0
 14
1.000000000000000E+20
 24
1.000000000000000E+20
 34
1.000000000000000E+20
 15
-1.000000000000000E+20
 25
-1.000000000000000E+20
 35
-1.000000000000000E+20
146
0.0
 13
0.0
 23
0.0
 33
0.0
 16
1.0
 26
0.0
 36
0.0
 17
0.0
 27
1.0
 37
0.0
 76
     0
330
1B
  0
LAYOUT
  5
26
102
{ACAD_REACTORS
330
1A
102
}
330
1A
100
AcDbPlotSettings
  1

  2
none_device
  4

  6

 40
0.0
 41
0.0
 42
0.0
 43
0.0
 44
0.0
 45
0.0
 46
0.0
 47
0.0
 48
0.0
 49
0.0
140
0.0
141
0.0
142
1.0
143
1.0
 70
   688
 72
     0
 73
     0
 74
     5
  7

 75
    16
 76
     0
 77
     2
 78
   300
147
1.0
148
0.0
149
0.0
100
AcDbLayout
  1
Layout2
 70
     1
 71
     2
 10
0.0
 20
0.0
 11
0.0
 21
0.0
 12
0.0
 22
0.0
 32
0.0
 14
0.0
 24
0.0
 34
0.0
 15
0.0
 25
0.0
 35
0.0
146
0.0
 13
0.0
 23
0.0
 33
0.0
 16
1.0
 26
0.0
 36
0.0
 17
0.0
 27
1.0
 37
0.0
 76
     0
330
23
  0
LAYOUT
  5
22
102
{ACAD_REACTORS
330
1A
102
}
330
1A
100
AcDbPlotSettings
  1

  2
none_device
  4

  6

 40
0.0
 41
0.0
 42
0.0
 43
0.0
 44
0.0
 45
0.0
 46
0.0
 47
0.0
 48
0.0
 49
0.0
140
0.0
141
0.0
142
1.0
143
1.0
 70
  1712
 72
     0
 73
     0
 74
     0
  7

 75
     0
 76
     0
 77
     2
 78
   300
147
1.0
148
0.0
149
0.0
100
AcDbLayout
  1
Model
 70
     1
 71
     0
 10
0.0
 20
0.0
 11
12.0
 21
9.0
 12
0.0
 22
0.0
 32
0.0
 14
1.000000000000000E+20
 24
1.000000000000000E+20
 34
1.000000000000000E+20
 15
-1.000000000000000E+20
 25
-1.000000000000000E+20
 35
-1.000000000000000E+20
146
0.0
 13
0.0
 23
0.0
 33
0.0
 16
1.0
 26
0.0
 36
0.0
 17
0.0
 27
1.0
 37
0.0
 76
     0
330
1F
331
29
  0
MLINESTYLE
  5
18
102
{ACAD_REACTORS
330
17
102
}
330
17
100
AcDbMlineStyle
  2
Standard
 70
     0
  3

 62
   256
 51
90.0
 52
90.0
 71
     2
 49
0.5
 62
   256
  6
BYLAYER
 49
-0.5
 62
   256
  6
BYLAYER
  0
ACDBPLACEHOLDER
  5
F
102
{ACAD_REACTORS
330
E
102
}
330
E
  0
SCALE
  5
2F1
102
{ACAD_REACTORS
330
2F0
102
}
330
2F0
100
AcDbScale
 70
     0
300
1:1
140
1.0
141
1.0
290
     1
  0
SCALE
  5
2F2
102
{ACAD_REACTORS
330
2F0
102
}
330
2F0
100
AcDbScale
 70
     0
300
1:2
140
1.0
141
2.0
290
     0
  0
SCALE
  5
2F3
102
{ACAD_REACTORS
330
2F0
102
}
330
2F0
100
AcDbScale
 70
     0
300
1:4
140
1.0
141
4.0
290
     0
  0
SCALE
  5
2F4
102
{ACAD_REACTORS
330
2F0
102
}
330
2F0
100
AcDbScale
 70
     0
300
1:5
140
1.0
141
5.0
290
     0
  0
SCALE
  5
2F5
102
{ACAD_REACTORS
330
2F0
102
}
330
2F0
100
AcDbScale
 70
     0
300
1:8
140
1.0
141
8.0
290
     0
  0
SCALE
  5
2F6
102
{ACAD_REACTORS
330
2F0
102
}
330
2F0
100
AcDbScale
 70
     0
300
1:10
140
1.0
141
10.0
290
     0
  0
SCALE
  5
2F7
102
{ACAD_REACTORS
330
2F0
102
}
330
2F0
100
AcDbScale
 70
     0
300
1:16
140
1.0
141
16.0
290
     0
  0
SCALE
  5
2F8
102
{ACAD_REACTORS
330
2F0
102
}
330
2F0
100
AcDbScale
 70
     0
300
1:20
140
1.0
141
20.0
290
     0
  0
SCALE
  5
2F9
102
{ACAD_REACTORS
330
2F0
102
}
330
2F0
100
AcDbScale
 70
     0
300
1:30
140
1.0
141
30.0
290
     0
  0
SCALE
  5
2FA
102
{ACAD_REACTORS
330
2F0
102
}
330
2F0
100
AcDbScale
 70
     0
300
1:40
140
1.0
141
40.0
290
     0
  0
SCALE
  5
2FB
102
{ACAD_REACTORS
330
2F0
102
}
330
2F0
100
AcDbScale
 70
     0
300
1:50
140
1.0
141
50.0
290
     0
  0
SCALE
  5
2FC
102
{ACAD_REACTORS
330
2F0
102
}
330
2F0
100
AcDbScale
 70
     0
300
1:100
140
1.0
141
100.0
290
     0
  0
SCALE
  5
2FD
102
{ACAD_REACTORS
330
2F0
102
}
330
2F0
100
AcDbScale
 70
     0
300
2:1
140
2.0
141
1.0
290
     0
  0
SCALE
  5
2FE
102
{ACAD_REACTORS
330
2F0
102
}
330
2F0
100
AcDbScale
 70
     0
300
4:1
140
4.0
141
1.0
290
     0
  0
SCALE
  5
2FF
102
{ACAD_REACTORS
330
2F0
102
}
330
2F0
100
AcDbScale
 70
     0
300
8:1
140
8.0
141
1.0
290
     0
  0
SCALE
  5
300
102
{ACAD_REACTORS
330
2F0
102
}
330
2F0
100
AcDbScale
 70
     0
300
10:1
140
10.0
141
1.0
290
     0
  0
SCALE
  5
301
102
{ACAD_REACTORS
330
2F0
102
}
330
2F0
100
AcDbScale
 70
     0
300
100:1
140
100.0
141
1.0
290
     0
  0
SCALE
  5
302
102
{ACAD_REACTORS
330
2F0
102
}
330
2F0
100
AcDbScale
 70
     0
300
1/128" = 1'-0"
140
0.0078125
141
12.0
290
     0
  0
SCALE
  5
303
102
{ACAD_REACTORS
330
2F0
102
}
330
2F0
100
AcDbScale
 70
     0
300
1/64" = 1'-0"
140
0.015625
141
12.0
290
     0
  0
SCALE
  5
304
102
{ACAD_REACTORS
330
2F0
102
}
330
2F0
100
AcDbScale
 70
     0
300
1/32" = 1'-0"
140
0.03125
141
12.0
290
     0
  0
SCALE
  5
305
102
{ACAD_REACTORS
330
2F0
102
}
330
2F0
100
AcDbScale
 70
     0
300
1/16" = 1'-0"
140
0.0625
141
12.0
290
     0
  0
SCALE
  5
306
102
{ACAD_REACTORS
330
2F0
102
}
330
2F0
100
AcDbScale
 70
     0
300
3/32" = 1'-0"
140
0.09375
141
12.0
290
     0
  0
SCALE
  5
307
102
{ACAD_REACTORS
330
2F0
102
}
330
2F0
100
AcDbScale
 70
     0
300
1/8" = 1'-0"
140
0.125
141
12.0
290
     0
  0
SCALE
  5
308
102
{ACAD_REACTORS
330
2F0
102
}
330
2F0
100
AcDbScale
 70
     0
300
3/16" = 1'-0"
140
0.1875
141
12.0
290
     0
  0
SCALE
  5
309
102
{ACAD_REACTORS
330
2F0
102
}
330
2F0
100
AcDbScale
 70
     0
300
1/4" = 1'-0"
140
0.25
141
12.0
290
     0
  0
SCALE
  5
30A
102
{ACAD_REACTORS
330
2F0
102
}
330
2F0
100
AcDbScale
 70
     0
300
3/8" = 1'-0"
140
0.375
141
12.0
290
     0
  0
SCALE
  5
30B
102
{ACAD_REACTORS
330
2F0
102
}
330
2F0
100
AcDbScale
 70
     0
300
1/2" = 1'-0"
140
0.5
141
12.0
290
     0
  0
SCALE
  5
30C
102
{ACAD_REACTORS
330
2F0
102
}
330
2F0
100
AcDbScale
 70
     0
300
3/4" = 1'-0"
140
0.75
141
12.0
290
     0
  0
SCALE
  5
30D
102
{ACAD_REACTORS
330
2F0
102
}
330
2F0
100
AcDbScale
 70
     0
300
1" = 1'-0"
140
1.0
141
12.0
290
     0
  0
SCALE
  5
30E
102
{ACAD_REACTORS
330
2F0
102
}
330
2F0
100
AcDbScale
 70
     0
300
1-1/2" = 1'-0"
140
1.5
141
12.0
290
     0
  0
SCALE
  5
30F
102
{ACAD_REACTORS
330
2F0
102
}
330
2F0
100
AcDbScale
 70
     0
300
3" = 1'-0"
140
3.0
141
12.0
290
     0
  0
SCALE
  5
310
102
{ACAD_REACTORS
330
2F0
102
}
330
2F0
100
AcDbScale
 70
     0
300
6" = 1'-0"
140
6.0
141
12.0
290
     0
  0
SCALE
  5
311
102
{ACAD_REACTORS
330
2F0
102
}
330
2F0
100
AcDbScale
 70
     0
300
1'-0" = 1'-0"
140
12.0
141
12.0
290
     0
  0
VISUALSTYLE
  5
2F
102
{ACAD_REACTORS
330
2A
102
}
330
2A
100
AcDbVisualStyle
  2
2dWireframe
 70
     4
 71
     0
 72
     2
 73
     0
 90
        0
 40
-0.6
 41
-30.0
 62
     5
 63
     7
421
 16777215
 74
     1
 91
        4
 64
     7
 65
   257
 75
     1
175
     1
 42
1.0
 92
        0
 66
   257
 43
1.0
 76
     1
 77
     6
 78
     2
 67
     7
 79
     5
170
     0
171
     0
290
     0
174
     0
 93
        1
 44
0.0
173
     0
291
     0
 45
0.0
1001
ACAD
1000
AcDbSavedByObjectVersion
1070
     0
  0
VISUALSTYLE
  5
31
102
{ACAD_REACTORS
330
2A
102
}
330
2A
100
AcDbVisualStyle
  2
3D Hidden
 70
     6
 71
     1
 72
     2
 73
     2
 90
        0
 40
-0.6
 41
-30.0
 62
     5
 63
     7
421
 16777215
 74
     2
 91
        2
 64
     7
 65
   257
 75
     2
175
     1
 42
40.0
 92
        0
 66
   257
 43
1.0
 76
     1
 77
     6
 78
     2
 67
     7
 79
     3
170
     0
171
     0
290
     0
174
     0
 93
        1
 44
0.0
173
     0
291
     0
 45
0.0
1001
ACAD
1000
AcDbSavedByObjectVersion
1070
     0
  0
VISUALSTYLE
  5
30
102
{ACAD_REACTORS
330
2A
102
}
330
2A
100
AcDbVisualStyle
  2
3dWireframe
 70
     5
 71
     0
 72
     2
 73
     0
 90
        0
 40
-0.6
 41
-30.0
 62
     5
 63
     7
421
 16777215
 74
     1
 91
        4
 64
     7
 65
   257
 75
     1
175
     1
 42
1.0
 92
        0
 66
   257
 43
1.0
 76
     1
 77
     6
 78
     2
 67
     7
 79
     5
170
     0
171
     0
290
     0
174
     0
 93
        1
 44
0.0
173
     0
291
     0
 45
0.0
1001
ACAD
1000
AcDbSavedByObjectVersion
1070
     0
  0
VISUALSTYLE
  5
32
102
{ACAD_REACTORS
330
2A
102
}
330
2A
100
AcDbVisualStyle
  2
Basic
 70
     7
 71
     1
 72
     0
 73
     1
 90
        0
 40
-0.6
 41
-30.0
 62
     5
 63
     7
421
 16777215
 74
     0
 91
        4
 64
     7
 65
   257
 75
     1
175
     1
 42
1.0
 92
        8
 66
     7
 43
1.0
 76
     1
 77
     6
 78
     2
 67
     7
 79
     5
170
     0
171
     0
290
     0
174
     0
 93
        1
 44
0.0
173
     0
291
     1
 45
0.0
1001
ACAD
1000
AcDbSavedByObjectVersion
1070
     0
  0
VISUALSTYLE
  5
36
102
{ACAD_REACTORS
330
2A
102
}
330
2A
100
AcDbVisualStyle
  2
Brighten
 70
    12
 71
     2
 72
     2
 73
     0
 90
        0
 40
-0.6
 41
-30.0
 62
     5
 63
     7
421
 16777215
 74
     1
 91
        4
 64
     7
 65
   257
 75
     1
175
     1
 42
1.0
 92
        8
 66
     7
 43
1.0
 76
     1
 77
     6
 78
     2
 67
     7
 79
     5
170
     0
171
     0
290
     0
174
     0
 93
        1
 44
50.0
173
     0
291
     1
 45
0.0
1001
ACAD
1000
AcDbSavedByObjectVersion
1070
     0
  0
VISUALSTYLE
  5
3A
102
{ACAD_REACTORS
330
2A
102
}
330
2A
100
AcDbVisualStyle
  2
ColorChange
 70
    16
 71
     2
 72
     2
 73
     3
 90
        0
 40
-0.6
 41
-30.0
 62
     5
 63
     8
421
  8421504
 74
     1
 91
        4
 64
     7
 65
   257
 75
     1
175
     1
 42
1.0
 92
        8
 66
     8
424
  8421504
 43
1.0
 76
     1
 77
     6
 78
     2
 67
     7
 79
     5
170
     0
171
     0
290
     0
174
     0
 93
        1
 44
0.0
173
     0
291
     1
 45
0.0
1001
ACAD
1000
AcDbSavedByObjectVersion
1070
     0
  0
VISUALSTYLE
  5
34
102
{ACAD_REACTORS
330
2A
102
}
330
2A
100
AcDbVisualStyle
  2
Conceptual
 70
     9
 71
     3
 72
     2
 73
     0
 90
        0
 40
-0.6
 41
-30.0
 62
     5
 63
     7
421
 16777215
 74
     2
 91
        2
 64
     7
 65
   257
 75
     1
175
     1
 42
40.0
 92
        8
 66
     7
 43
1.0
 76
     1
 77
     6
 78
     2
 67
     7
 79
     3
170
     0
171
     0
290
     0
174
     0
 93
        1
 44
0.0
173
     0
291
     0
 45
0.0
1001
ACAD
1000
AcDbSavedByObjectVersion
1070
     0
  0
VISUALSTYLE
  5
35
102
{ACAD_REACTORS
330
2A
102
}
330
2A
100
AcDbVisualStyle
  2
Dim
 70
    11
 71
     2
 72
     2
 73
     0
 90
        0
 40
-0.6
 41
-30.0
 62
     5
 63
     7
421
 16777215
 74
     1
 91
        4
 64
     7
 65
   257
 75
     1
175
     1
 42
1.0
 92
        8
 66
     7
 43
1.0
 76
     1
 77
     6
 78
     2
 67
     7
 79
     5
170
     0
171
     0
290
     0
174
     0
 93
        1
 44
-50.0
173
     0
291
     1
 45
0.0
1001
ACAD
1000
AcDbSavedByObjectVersion
1070
     0
  0
VISUALSTYLE
  5
39
102
{ACAD_REACTORS
330
2A
102
}
330
2A
100
AcDbVisualStyle
  2
Facepattern
 70
    15
 71
     2
 72
     2
 73
     0
 90
        0
 40
-0.6
 41
-30.0
 62
     5
 63
     7
421
 16777215
 74
     1
 91
        4
 64
     7
 65
   257
 75
     1
175
     1
 42
1.0
 92
        8
 66
     7
 43
1.0
 76
     1
 77
     6
 78
     2
 67
     7
 79
     5
170
     0
171
     0
290
     0
174
     0
 93
        1
 44
0.0
173
     0
291
     1
 45
0.0
1001
ACAD
1000
AcDbSavedByObjectVersion
1070
     0
  0
VISUALSTYLE
  5
2B
102
{ACAD_REACTORS
330
2A
102
}
330
2A
100
AcDbVisualStyle
  2
Flat
 70
     0
 71
     2
 72
     1
 73
     1
 90
        2
 40
-0.6
 41
30.0
 62
     5
 63
     7
421
 16777215
 74
     0
 91
        4
 64
     7
 65
   257
 75
     1
175
     1
 42
1.0
 92
        8
 66
     7
 43
1.0
 76
     1
 77
     6
 78
     2
 67
     7
 79
     5
170
     0
171
     0
290
     0
174
     0
 93
       13
 44
0.0
173
     0
291
     1
 45
0.0
1001
ACAD
1000
AcDbSavedByObjectVersion
1070
     0
  0
VISUALSTYLE
  5
2C
102
{ACAD_REACTORS
330
2A
102
}
330
2A
100
AcDbVisualStyle
  2
FlatWithEdges
 70
     1
 71
     2
 72
     1
 73
     1
 90
        2
 40
-0.6
 41
30.0
 62
     5
 63
     7
421
 16777215
 74
     1
 91
        4
 64
     7
 65
   257
 75
     1
175
     1
 42
1.0
 92
        0
 66
   257
 43
1.0
 76
     1
 77
     6
 78
     2
 67
     7
 79
     5
170
     0
171
     0
290
     0
174
     0
 93
       13
 44
0.0
173
     0
291
     1
 45
0.0
1001
ACAD
1000
AcDbSavedByObjectVersion
1070
     0
  0
VISUALSTYLE
  5
2D
102
{ACAD_REACTORS
330
2A
102
}
330
2A
100
AcDbVisualStyle
  2
Gouraud
 70
     2
 71
     2
 72
     2
 73
     1
 90
        2
 40
-0.6
 41
30.0
 62
     5
 63
     7
421
 16777215
 74
     0
 91
        4
 64
     7
 65
   257
 75
     1
175
     1
 42
1.0
 92
        0
 66
     7
 43
1.0
 76
     1
 77
     6
 78
     2
 67
     7
 79
     5
170
     0
171
     0
290
     0
174
     0
 93
       13
 44
0.0
173
     0
291
     1
 45
0.0
1001
ACAD
1000
AcDbSavedByObjectVersion
1070
     0
  0
VISUALSTYLE
  5
2E
102
{ACAD_REACTORS
330
2A
102
}
330
2A
100
AcDbVisualStyle
  2
GouraudWithEdges
 70
     3
 71
     2
 72
     2
 73
     1
 90
        2
 40
-0.6
 41
30.0
 62
     5
 63
     7
421
 16777215
 74
     1
 91
        4
 64
     7
 65
   257
 75
     1
175
     1
 42
1.0
 92
        0
 66
   257
 43
1.0
 76
     1
 77
     6
 78
     2
 67
     7
 79
     5
170
     0
171
     0
290
     0
174
     0
 93
       13
 44
0.0
173
     0
291
     1
 45
0.0
1001
ACAD
1000
AcDbSavedByObjectVersion
1070
     0
  0
VISUALSTYLE
  5
38
102
{ACAD_REACTORS
330
2A
102
}
330
2A
100
AcDbVisualStyle
  2
Linepattern
 70
    14
 71
     2
 72
     2
 73
     0
 90
        0
 40
-0.6
 41
-30.0
 62
     5
 63
     7
421
 16777215
 74
     1
 91
        4
 64
     7
 65
   257
 75
     7
175
     7
 42
1.0
 92
        8
 66
     7
 43
1.0
 76
     1
 77
     6
 78
     2
 67
     7
 79
     5
170
     0
171
     0
290
     0
174
     0
 93
        1
 44
0.0
173
     0
291
     1
 45
0.0
1001
ACAD
1000
AcDbSavedByObjectVersion
1070
     0
  0
VISUALSTYLE
  5
33
102
{ACAD_REACTORS
330
2A
102
}
330
2A
100
AcDbVisualStyle
  2
Realistic
 70
     8
 71
     2
 72
     2
 73
     0
 90
        0
 40
-0.6
 41
-30.0
 62
     5
 63
     7
421
 16777215
 74
     1
 91
        0
 64
     7
 65
   257
 75
     1
175
     1
 42
1.0
 92
        8
 66
     8
424
  7895160
 43
1.0
 76
     1
 77
     6
 78
     2
 67
     7
 79
     5
170
     0
171
     0
290
     0
174
     0
 93
       13
 44
0.0
173
     0
291
     0
 45
0.0
1001
ACAD
1000
AcDbSavedByObjectVersion
1070
     0
  0
VISUALSTYLE
  5
37
102
{ACAD_REACTORS
330
2A
102
}
330
2A
100
AcDbVisualStyle
  2
Thicken
 70
    13
 71
     2
 72
     2
 73
     0
 90
        0
 40
-0.6
 41
-30.0
 62
     5
 63
     7
421
 16777215
 74
     1
 91
        4
 64
     7
 65
   257
 75
     1
175
     1
 42
1.0
 92
       12
 66
     7
 43
1.0
 76
     1
 77
     6
 78
     2
 67
     7
 79
     5
170
     0
171
     0
290
     0
174
     0
 93
        1
 44
0.0
173
     0
291
     1
 45
0.0
1001
ACAD
1000
AcDbSavedByObjectVersion
1070
     0
  0
DICTIONARYVAR
  5
32A
102
{ACAD_REACTORS
330
329
102
}
330
329
100
DictionaryVariables
280
     0
  1
1:1
  0
XRECORD
  5
328
102
{ACAD_REACTORS
330
327
102
}
330
327
100
AcDbXrecord
280
     1
1000
This DWG file was created in ArchiCAD(TM)®
  0
ENDSEC
  0
EOF
